Stevie Ray Vaughan - Life By The Drop Chords & Tabs

 

Stevie Ray Vaughan Chords & Tabs

Version: 1 Type: Tab 0 ratings
1 star 2 stars 3 stars 4 stars 5 stars
comments

Life By The Drop Tab

 Life By The Drop
 Stevie Ray Vaughan
 12 string Guitar Standard Tuning.


 This song was transcribed by Brian Lamacraft (brlam@prcn.org) . You may use
 this file for
 your own personal use.  Please mail me if you wish to use it on your site.
 Best viewed with the
 Courier New font.  Please use a medium font setting to view this file in
 your browser. Mail
 me if you still can't read it. This song is designed to print as formatted
 pages so there is no
 cut off of the tab, that is why there is many parts.

 E-|---------------------------------------|---------------------------
 B-|---------------------------------------|---------------------------
 G-|---------------0------------------0h2--|--0------------------------
 D-|-------0--1h2-----0h1p0-----0----------|-----2--1--0h1p0-----0-----
 A-|--0h3--------------------3-----3-------|------------------3--------
 E-|---------------------------------------|---------------------------


 E------------------|----------------------------|---------------------
 B------------------|----------------------------|---------------------
 G---------------2--|-------------------------2--|---------------------
 D------0-----------|--2--2--4--4--2--2----------|--2--2--4--0--2--2---
 A---3-----3--0-----|--0--0--0--0--0--0--3p0-----|--0--0--0-----0--0---
 E------------------|----------------------------|---------------------


                             1. Hello in there            my
                         old friend
                             2. Up and down that road in our
 worn out shoes

 E---------||-----------------------------|----------------------|-
 B---------||-----------------------------|----------------------|-
 G---------||*----------------------------|----------------------|-
 D---4--4--||*--2--2--4--0--2--2--4--0h2--|--------0-2-----------|-
 A---0--0--||---0--0--0-----0--0--0-------|--2--4--0p2-----4--4--|-
 E---------||-----------------------------|--0--0-------0--0--0--|-

       Not so long ago it was                     till the end
                 We played outside in the
       Talkin bout good things and             singing the blues         You
 went your way and

 E------------------|--------------------------|----------------------
 B------2-----2-----|--------------------------|----------------------
 G------2-----2--0--|--2--2--4--4--2--2--4--4--|--------------------0-
 D------4-----4--0--|--0--0--0--0--0--0--0--0--|-2-2-4--0--2-----4----
 A---4--4-----4--0--|--------------------------|-0-0-0-----0--0--0----
 E-2-2-----2--------|--------------------------|----------------------

    pourin rain                                             On our way up the road we          started
    I stayed behind                                       We both knew it was just a          matter 



E--|--------------------------|-----------2--------------|------------
B--|--------------------------|--------2--2--2-----2--0--|------------
G--|--------------------------|--------2-----2-----2--0--|--2--2--4---
D--|--------------------------|--------4-----4-----4--0--|--0--0--0---
A--|--2--2--4--0--2--2--4--4--|--------4-----------4--0--|------------
E--|--0--0--0-----0--0--0--0--|--2--2-----------2--------|------------



  over   again           Chorus:  Your livin your dreams of      you on top
    of time



E-----------------|-----------------------|---------------------------
B-----------------|-----------------2-----|---------------------------
G--0--2--2--4--4--|--------2--------2--0--|--2--2--4--0---------------
D-----0--0--0--0--|--------4--------4--0--|--0--0--0--0---------------
A-----------------|-----4--4--------4-----|--------------2--2--4--4---
E-----------------|--2--2-----2--2--------|--------------0--0--0--0---




My mind is achin,      and              Lord it won't stop                        Thats how it happened
                                                                                                        Livin        



E--|-----------------------|--------------------------|--------------
B--|-----------------2-----|--------------------------|--2-----1-----
G--|--------2--------2--0--|--2--2--4--0--------------|--2-----2-----
D--|--------4--------4--0--|--0--0--0--0--------------|--4--0--0-----
A--|-----4--4--------4-----|--------------2--2--4--0--|--4--0-----0--
E--|--2--2-----2--2--------|--------------0--0--0--0--|--2--------0--




Life by the drop                                                                 1. Time end here.


[ Tab from: http://www.guitartabs.cc/tabs/s/stevie_ray_vaughan/life_by_the_drop_tab.html ]
E-|-----------0--|--------------------------|-------------------------
B-|--0--------0--|--------------------------|-------------------------
G-|--1--------0--|--------------------------|-------------------------
D-|--2--------0--|--2--2--4--4--2--2--4--4--|--2--2--4--4--2--2--4-4--
A-|--2-----------|--0--0--0--0--0--0--0--0--|--0--0--0--0--0--0--0-0--
E-|--0-----------|--------------------------|-------------------------



                    2.Time end here.                             3.   No waste of time were al -



E------||----------------------------|--------------------------------
B------||----------------------------|--------------------------------
G-----*||-------------2--------------|--------------------------------
D-----*||--2--2-------2--2--2--4--4--|--2--2--4--0--2-----4--0--------
A------||--0--0--3p0-----0--0--0--0--|--0--0--0-----0--0--0-----------
E------||----------------------------|--------------------------------


cont verse 3. allowed to-day                 Churin up the past there's no                easier way



E-|--------------------------|--------------------------|-------------
B-|--------------------------|--------------------------|--------1----
G-|-----------------------0--|--------------------2-----|--------2----
D-|-----------0-----------0--|--------4--4--------4--4--|-----0--0----
A-|--2--2--4--0--2--2--4--0--|--------------------4-----|--4--0-------
E-|--0--0--0-----0--0--0-----|--2--2--------2--2--------|--2--0-------



               Times been between us a means              to an end



E--------2--0--|--------------------------|---------------------------
B--1--------0--|--------------------------|---------------------------
G-----2-----0--|-----------------------0--|---------------------------
D--------------|--2--2--4--0--2--2--4--0--|-----------0---------------
A--------------|--0--0--0-----0--0--0-----|--2--2--4--0--2--2--4--0---
E--------------|--------------------------|--0--0--0-----0--0--0--0---



God its good to be here   -gether my friend    Livin our dreams
walkin to---



E-|-----------------------|--------------|--------------------|-------
B-|--2--------------------|-----1--------|--2-----------2-----|-------
G-|--2--------------------|-----2--------|--2-----------2-----|-------
D-|--4--------------------|-----0--------|--4-----------4-----|--0----
A-|--4--------------------|--------------|--4--4--------------|--0----
E-|--2--------------------|-----------2--|-----2--2--2-----2--|-------



                                  My mind stopped achin



E--------------------------------|-----------------------|------------
B--------------------------------|--------2--------2-----|------------
G-------------------2------------|--------2--------2-----|------------
D-------------------2--2h4p2-----|--------4--------4-----|--0---------
A--2--2h4--2~~~---------------4--|--------4--------4-----|--0--2--2---
E--------------------------------|--2--2-----2--2-----2--|------------



                          That's how it        Life by the 
                          happened livin       drop
                          



E-------------0------------|-----2-----2-----|--0--------|------------
B-------------0------------|-----2-----1-----|--0--------|------------
G-------------2------------|-----2-----2-----|--1-----0--|------------
D----------------2h4p2-----|-----4-----4-----|--2-----0--|--2--2--4---
A---h4--2~~~------------4--|-----------------|--2-----0--|--0--0--0---
E--------------------------|--2-----------0--|-----------|------------



                                                That's how it
                                                happened livin



E-----------------|-----------------------------|----------------|
B-----------------|-----------------------------|--2-----1-------|
G-----------------|--------------2--------------|--2-----2-------|
D--4--2--2--4--4--|--2--2--------2--2--2--4-----|--4-----0-------|
A--0--0--0--0--0--|--0--0--3--0-----0--0--0-----|--4-------------|
E-----------------|--------------------------0--|--2--------0----|




Life by the drop



E-------------|----------------------------------------------------
B--0------2---|----------------------------------------------------
G--0------2---|----------------------------------------------------
D--1------2---|----------------------------------------------------
A--2------0---|----------------------------------------------------
E--2------0---|----------------------------------------------------


Comments