Stevie Ray Vaughan - Crossfire Live Chords & Tabs

 

Crossfire Live Chords & Tabs

Stevie Ray Vaughan Chords & Tabs

Version: 1 Type: Tab 0 ratings
1 star 2 stars 3 stars 4 stars 5 stars
comments

Crossfire Live Tab

#----------------------------------PLEASE NOTE--------------------------------#
#This file is the author's own work and represents their interpretation of the#
#song. You may only use this file for private study, scholarship, or research.#
#-----------------------------------------------------------------------------#
#-- File created with Instab - http://www.pconline.com/~smcarey/instab.html --#
#-----------------------------------------------------------------------------#

Author/Artist: Stevie Ray Vaughan
Title: Crossfire (Live)
Transcribed by: Stew Fenters
Email: guitardude4287@hotmail.com

Since there were no tabs for this song I decided
to tab it.

Basically this is one of SRV's easier songs, except
for the solos.

SRV had a very unique style.  He put his thumb
over all the string to get a unique sound. At about
23 seconds of this song, he uses this technique.
This is very hard to tab, almost impossible. I can't make
it sound right in the tab so I just do the best I can.

-------------------------------------------------------17p16-14---------------|
-------------------------------------16v-16v---------------------17\----------|
---13/-----------13br-11----------------------16\-----------------------------|
---13/--------------------13\-------------------------------------------------|
--------------------------13\-------------------------------------------------|
------------------------------------------------------------------------------|

[ Tab from: http://www.guitartabs.cc/tabs/s/stevie_ray_vaughan/crossfire_live_tab.html ]
------------------------------------------------------------------------------|
------------------------------------------------------------------------------|
------------------------------------------------------------------------------|
-------16v--------------11h13v------------------------------------------------|
-------16v-------11h13--------------------------------------------------------|
-/17v-------------------------------------------------------------------------|


------------------------------------------------------------------------------|
------------------------------------------------------------------------------|
--------13br-11---------------------------------------------------------------|
-----------------13\----------------------------------------------------------|
-----------------13\----------------------------------------------------------|
------------------------------------------------------------------------------|
 Day by day night after night.....

------------------------------------------------------------------------------|
------------------------------------------------------------------------------|
------------------------------------------------------------------------------|
-------------------11h13------------------------------------------------------|
------------11h13-------------------------------------------------------------|
------------------------------------------------------------------------------|
 Hurry here, hustle there (Keep that some progression through the verses)

------------------------------------------------------------------------------|
---------------------------------------16-------------------------------------|
---------------16v-------------13b--------------------------------------------|
---------------16v--------------------------16--------------------------------|
----------17v-----------------------------------------------------------------|
------------------------------------------------------------------------------|
  I'm stranded, caught in the crossfire...
Comments