Stevie Ray Vaughan - Crossfire Chords & Tabs

 

Crossfire Chords & Tabs

Stevie Ray Vaughan Chords & Tabs

Version: 1 Type: Bass Tab 0 ratings
1 star 2 stars 3 stars 4 stars 5 stars
comments

Crossfire Bass Tab

Crossfire - Stevie Ray Vaughn

sounds like the tone knob is turned all the way up on this one.

  main riff:
G|-------------------------------|
D|----------------------------2--|
A|------2-4-4--2-4-4--2-4-2-4----|
E|0-0-4--------------------------|
[ Tab from: http://www.guitartabs.cc/tabs/s/stevie_ray_vaughan/crossfire_btab.html ]
at about the middle of the song, the chorus is played as this twice: 
G|-----------------|
D|----4-4-----6-6--|
A|-----------------|
E|2-2-----4-4------|

after the first chorus like that, this main riff variation is played 
(those are 11's and 13's):
G|------------11-13---------------------|
D|---------------------11----11---------|
A|------2-4-4-------13----13----13-9-11-|
E|0-0-4---------------------------------|

tabbed by Achilles (blue_sincere@hotmail.com)
Comments