Stevie Nicks - Cheaper Than Free Chords & Tabs

 

Cheaper Than Free Chords & Tabs

Stevie Nicks Chords & Tabs

Version: 1 Type: Tab

Cheaper Than Free Tab

   
SONG:   CHEAPER THAN FREE
ARTIST: STEVIE NICKS & DAVE STEWART
ALBUM:  IN YOUR DREAMS
TAB BY: DON CZARSKI
EMAIL:  GUITARZAN7@HOTMAIL.COM

                     CHEAPER THAN FREE
                 STEVIE NICKS & DAVE STEWART

INTRO: D E A , D E A

VERSE:
A                    D
What's cheaper than free?
E         A
  You and me
A                    D
What's better then alone?
E        A
  Going home
A                    D
What does money not buy?
E         A
  You and I
A              D
What's not to feel?
E               A
  When love is real


INSTRUMENTAL:
  A        D   E      A   A       D       E          A
E -----------|----------|-----------|-------|----------|
B -----------|----------|-----------|-------|----------|
G -----------|----------|-----------|-------|----------|
D --7-9-11---|--6-7-9---|--7-9-11---|-6/7-6-|--6-7-9-7-|
A ---------9-|--------7-|---------9-|-------|----------|
E -----------|----------|-----------|-------|----------|
[ Tab from: http://www.guitartabs.cc/tabs/s/stevie_nicks/cheaper_than_free_tab.html ]
VERSE:
A                     D
What's faster then a fast car?
E            A
  A beating heart
A                     D
What's deeper then a deep well?
E                        A
  The love into which I fell
A                     D
More important then freedom?
E        A
  Being needed
A                        D
More exciting then high fashion?
E       A
  High passion


INSTRUMENTAL:
  A        D   E      A   
E -----------|----------|
B -----------|----------|
G -----------|----------|
D --7-9-11---|--6-7-9---|
A ---------9-|--------7-|
E -----------|----------|

A                       D
What's brighter then a smile
E      A
  You child, You child

A                       D
What's brighter then a smile
E      A
  You child, You child

A     D          E    A
You child, You child

A                     D
What's warmer then a sun drenched land
E       A
  Your hand
A     D
Your hand
E       A
  Your hand