Steven Wilson - The Holy Drinker Chords & Tabs

 

The Holy Drinker Chords & Tabs

Steven Wilson Chords & Tabs

Version: 1 Type: Tab 0 ratings
1 star 2 stars 3 stars 4 stars 5 stars
comments

The Holy Drinker Tab

Welcome! Any comments and suggestions are more than welcome, and please remember to 
rate, have fun!


Intro Solo... '~' means use of whammy and '*' means pinch harmonics
e|-12-13--10~-------------------------------------------------------|
B|-------------11p9-6-------------/8----------------/8--------1~----|
G|--------------------7---------7----9h10p9-\7-\3h4------9----3~----|
D|----------------------6---5-6------------------------8------------|
A|------------------------------------------------------------------|
E|------------------------------------------------------------------|

e|----------------8--------------------------------------------------------|
B|---8----------------9---8-7---5------------------------------------------|
G|-----7-8---10-----6---6-----8---7-6-3-3-4--------------------------------|
D|---------7----9---------------------------6-5----------------------------|
A|-7--------------------------------------------7-5-4--5---5*--7---7*b8----|
E|-------------------------------------------------------x-------x---------|

e|------------------------------------12--11-10--9-8--6-5---4--------|
B|----------------------------------12--------------------5---6-4----|
G|---------9-9/12-----------------12---------------------------------|
D|-----7-9----------12-x-12*----12-----------------------------------|
A|-7-8---------------------------------------------------------------|
E|-------------------------------------------------------------------|

e|--------------3-4--4/9-10-10-10-10\6-7--6p4h6------------------------------|
B|-3-4-5-6p5h6----------------------------------6p5---5----------------------|
G|--------------------------------------------------7---4p3---2--------------|
D|----------------------------------------------------------4---3-5----------|
A|------------------------------------------------------------------7-5------|
E|----------------------------------------------------------------------7----|
After the solo is over, play the riffs written below

Intro...In-between riffs there is pretty much only harmonics and E chords ringing, so 
play around with that a bit
e|--------------------|
B|--------------------|
G|--------------------| This riff is repeated throughout the intro, on the last rep
D|--------------------| do not play the open E note...
A|---1---0------------|
E|-1---2---3-1-(0)----|

e|-12-------10----------|
B|----11-------10-------|
G|-------9--------9\----| This lick also pops frequently...
D|----------------------|
A|----------------------|
E|----------------------|


Pre-Verse
e|------------------------------|
B|------------------------------|
G|-9-9-9-9--9-9-9-9--9-9-9-9----|
D|-9-9-9-9--9-9-9-9--9-9-9-9----|
A|-7-7-7-7--7-7-7-7--7-7-7-7----|
E|------------------------------|


Verse
e|-------------------------------------0------------|
B|-------------------------------------0------------|
G|-------------------------------9------------------|
D|-5-4-2-2------2----2-----------9------------------|
A|-------0------0----0-----------7------------------|
E|-----------3b---3b--------/15\--------------0-----|

e|------------------------|
B|------------------------|
G|------------------------|
D|-5-4-2-2------2----2----|
A|-------0------0----0----|
E|-----------3b---3b------|

e|----------------------------------0----|
B|----------------------------------0----|
G|-6-6--9-9--7-7--7-7--10--10-9----------|
D|-6-6--9-9--9-9--8-8--10--10-9----------| x2
A|-4-4--7-7--9-9--8-8--8---8--7----------|
E|---------------------------------------|

e|-------------------------------|
B|-------------------------------|
G|-6-6--9-9--7-7--7-7--10--10----|
D|-6-6--9-9--9-9--8-8--10--10----|
A|-4-4--7-7--9-9--8-8--8---8-----|
E|-------------------------------|

e|------------------------------------------------|
B|------------------------------------------------|
G|-----------------------------4-5---2-4---0-2----|
D|-2-4-5--4-5-7--4-2-1--1-2-1------2-----2--------| x4
A|------------------------------------------------|
E|------------------------------------------------|
|
Harmonization comes in at the third rep
e|---------------------------------------------------------|
B|---------------------------------------------------------|
G|-----------------------------------11-12---9-11---7-9----|
D|-9-11-12--11-12-14--11-9-8--8-9-8--------9------9--------| x2
A|---------------------------------------------------------|
E|---------------------------------------------------------|
[ Tab from: http://www.guitartabs.cc/tabs/s/steven_wilson/the_holy_drinker_tab.html ]
e|-------------13-------------------------------|
B|----------13----13----------------------------|
G|-------15----------15-------------------------|
D|----14----------------15-14-------------------|
A|-13-------------------------------------------|
E|-----------------------------------------0----|


Verse 2
e|----------------------------------------0------------|
B|----------------------------------------0------------|
G|-----------------------------------------------------|
D|-5-4-2-2------2----2----2----------------------------|
A|-------0------0----0----0----------------------------|
E|-----------3b---3b---3b---3b-----0------------0------|

e|------------------------|
B|------------------------|
G|------------------------|
D|-5-4-2-2------2----2----|
A|-------0------0----0----|
E|-----------3b---3b------|

e|----------------------------------0----|
B|----------------------------------0----|
G|-6-6--9-9--7-7--7-7--10--10-9----------|
D|-6-6--9-9--9-9--8-8--10--10-9----------| x3
A|-4-4--7-7--9-9--8-8--8---8--7----------|
E|---------------------------------------|

e|-------------------------14--------13-----------11----|
B|------9--------12-----15--------15-----------13-------|
G|----9-------12-----16--------15-----------13----------|
D|-11------13----------------------------14-------------|
A|------------------------------------------------------|
E|------------------------------------------------------|

e|----------------------------------------------------------------------|
B|-14b15---12-----10----10/12-10------------10\----/9--8--7--6---6------|
G|-------------12----12----------12-9----12--------------------5--------|
D|-----------------------------------------------------------------2----|
A|----------------------------------------------------------------------|
E|----------------------------------------------------------------------|



e|----12------12h13-12------------------12------12h13-12------------------|
B|-12-----12------------15-12--13-12--------12------------15-12--13-13----|
G|------------------------------------------------------------------------|
D|------------------------------------------------------------------------| x2 using endings below
A|------------------------------------------------------------------------|
E|------------------------------------------------------------------------|
|
1.
e|-12--15------16---------------------------------|
B|---------13------16--13------11--12--/14--12----|
G|--------------------------13--------------------|
D|------------------------------------------------|
A|------------------------------------------------|
E|------------------------------------------------|
|
2.
e|-12--15------16-------------------------------------|
B|---------13------16--13--16------11--12--/14--17----|
G|------------------------------13--------------------|
D|----------------------------------------------------|
A|----------------------------------------------------|
E|----------------------------------------------------|

e|--------------------------------------------|
B|--------------------------------------------|
G|-5--7--8--10--11--13--14--16--17--19--20----|
D|-5--7--8--10--11--13--14--16--17--19--20----|
A|-3--5--6--8---9---11--12--14--15--17--18----|
E|--------------------------------------------|

e|------------------------------------------------|
B|------------------------------------------------|
G|------------------------------------------------|
D|-21-21-21-21----21-21-21-21----21-21-21-21------|
A|-19-19-19-19----19-19-19-19----19-19-19-19------|
E|-------------------------------------------0----|


Outro
e|-------------------------------------|
B|-------------------------------------|
G|-9------8----------5------4----------|
D|-9------8----------5------4----------| Not sure if a guitar is also playing this...
A|-7------6----------3------2----------|
E|-------------------------------------|

e|------------------------------------------------|
B|------------------------------------------------|
G|-----------------------------4-5---2-4---0-2----|
D|-2-4-5--4-5-7--4-2-1--1-2-1------2-----2--------| x10
A|------------------------------------------------|
E|------------------------------------------------|
|
Harmonization comes in at the third rep
e|---------------------------------------------------------|
B|---------------------------------------------------------|
G|-----------------------------------11-12---9-11---7-9----|
D|-9-11-12--11-12-14--11-9-8--8-9-8--------9------9--------| x8
A|---------------------------------------------------------|
E|---------------------------------------------------------|
Comments