Steve Vai - Windows To The Soul Chords & Tabs

 

Windows To The Soul Chords & Tabs

Steve Vai Chords & Tabs

Version: 1 Type: Tab 0 ratings
1 star 2 stars 3 stars 4 stars 5 stars
comments

Windows To The Soul Tab

#----------------------------------PLEASE NOTE--------------------------------#
#This file is the author's own work and represents their interpretation of the#
#song. You may only use this file for private study, scholarship, or research.#
#-----------------------------------------------------------------------------#
#-- File created with Instab - http://www.pconline.com/~smcarey/instab.html --#
#-----------------------------------------------------------------------------#

Author/Artist: Steve Vai
Title: Windows to the Soul
Album: The Ultra Zone
Transcribed by: Erik Wendel aka Corse
Email: xpraven@hotmail.com

------------------------------------------------------------------------------|
--17--15-13-15-17----15-13-17-15---13-10-8/10----17-20-22-22/20--20/17--------|
------------------------------------------------------------------------------|
------------------------------------------------------------------------------|
------------------------------------------------------------------------------|
------------------------------------------------------------------------------|


------------------------------------------------------------------------------|
--15-13-17-15----13-10-8/10---------------------------------------------------|
------------------------------------------------------------------------------|
------------------------------------------------------------------------------|
------------------------------------------------------------------------------|
------------------------------------------------------------------------------|


------------------------------------------------------------|-----------------|
------------------------------------------------------------|-----------------|
---14b---14--12---12-14-------------------------------------|-----------------|
-------------------------14----14-12-10-10h12---12^p10------|--12^p10---------|
-------------------------------------------------------12---|---------12-10---|
------------------------------------------------------------|-----------------|

[ Tab from: http://www.guitartabs.cc/tabs/s/steve_vai/windows_to_the_soul_tab.html ]
------------------------------------------------------------------------------|
------------------------------------------------------------------------------|
------------------------------------------------------------------------------|
----10--------------------10-12-14-15-14---12--14h17p14--12-------------------|
-------12-12--------10-12-----------------------------------------------------|
-12---------------------------------------------------------------------------|


------------------------------------------------------------------------------|
---------------17----------------15-------------------------------------------|
------------17-----17--14----17-----16---16h17p16-14-----14/16----17/16-14----|
---------19-------------------------------------------17----------------------|
------19----------------------------------------------------------------------|
---17-------------------------------------------------------------------------|


------------------------------------------------------------------------------|
-------------------------17---------------15----------------------------------|
-12-12/14-------------17-----17--14----17----16--16h17p16h17p16--14-----------|
-------------------19-----------------------------------------------17--------|
----------------19------------------------------------------------------------|
-------------17---------------------------------------------------------------|


------------------------------------------------------------------------------|
-----15--17----15----------21--22---------------------------------------------|
--17--------------17----23----------------------------------------------------|
------------------------------------------------------------------------------|
------------------------------------------------------------------------------|
------------------------------------------------------------------------------|


------------------------------------------------------------------------------|
--22b---22-20----20h22--------------------------------------------------------|
-----------------------21---19--17--17h19----19b--19--17----17----------------|
---------------------------------------------------------17----19-17h17-------|
------------------------------------------------------------------------------|
------------------------------------------------------------------------------|
Comments