Steve Vai - The God Eaters Chords & Tabs

 

The God Eaters Chords & Tabs

Steve Vai Chords & Tabs

Version: 1 Type: Tab 0 ratings
1 star 2 stars 3 stars 4 stars 5 stars
comments

The God Eaters Tab

Here is a small song by Steve Vai frm his last album.
The rythm is about the same the whole song. This
should be child-stuff for all of you but it's
a cool song to play.

Andreas J”nsson 

                        ----
                     ----

                                                                             
E-|---------------------------------------------------13--12------------------|
B-|-10--9-----12--11------------------------------11----------13----------12--|
G-|--------9----------11------------------------------------------14--13------|
D-|-----------------------11--10--13----------13------------------------------|
A-|-----------------------------------12--11----------------------------------|
E-|---------------------------------------------------------------------------|
                                                                               
                                                                               
E-|-17--16----------------------------------13--12--------------------------10|
B-|---------17--14--13--16--15----------------------13------12--11--11--12----|
G-|-----------------------------15------15--------------14--------------------|
D-|---------------------------------15----------------------------------------|
A-|---------------------------------------------------------------------------|
E-|---------------------------------------------------------------------------|
                                                                               
          ~~~~~~~~~~~                                                          
E-|----------------------------------------------------------14--13---------12|
B-|-14--------------------13--10----------13--10---------12----------13-------|
G-|-----13------------12----------10--12----------10--9-----------------------|
[ Tab from: http://www.guitartabs.cc/tabs/s/steve_vai/the_god_eaters_tab.html ]
D-|---------------------------------------------------------------------------|
A-|---------------------------------------------------------------------------|
E-|---------------------------------------------------------------------------|
                                                                               
            ~~~~~~~~~                            ~~~~~~~~~                     
E-|--11---------------14---11------14--11-------------------------------------|
B-|-----------------------------------------------------------------------12--|
G-|-------13-------------------13----------14--15-------------14--13----------|
D-|-------------------------------------------------------------------14------|
A-|---------------------------------------------------------------------------|
E-|---------------------------------------------------------------------------|
                                                                               
               ~~~~~~~~               ~~~~~~~~                                 
E-|-----------------------------------------------------------------------14--|
B-|-11----------------------16--14----------------16--14------16--14----------|
G-|-----11---13---------13----------13--------13----------13----------13------|
D-|---------------------------------------------------------------------------|
A-|---------------------------------------------------------------------------|
E-|---------------------------------------------------------------------------|
                                                                               
                  ~~~~~~                                                       
E-|----------------------------------------------13---------------------------|
B-|-------------------------------------------------17-13-12----------12--15--|
G-|---------13--------------------------------15---------------15--15---------|
D-|-16--15------16----------------13-------13---------------------------------|
A-|-------------------------16-15----12-11------------------------------------|
E-|---------------------------------------------------------------------------|
                                                                               
          ~~~~~~~~~~~~~                                                        
E-|---------------------------------------------------------------------------|
B-|-14------------------------------------------------------------------------|
G-|-----13--------------------------------------------------------------------|
D-|---------------------------------------------------------------------------|
A-|---------------------------------------------------------------------------|
E-|---------------------------------------------------------------------------|
                                                                               

                                 The End
Comments