Steve Vai - The Crying Machine Chords & Tabs

 

The Crying Machine Chords & Tabs

Steve Vai Chords & Tabs

Version: 3 Type: Tab 0 ratings
1 star 2 stars 3 stars 4 stars 5 stars
comments

The Crying Machine Tab

THE CRYING MACHINE by Steve Vai

From Alexandre East

This is not the complete song but it stops at 1:34 and I 
might finish it someday.

e--------------------------------------------------------
b-17-17-17-17-17-17-17-17-17-(or 15 bend)----------------
g--------------------------------------------------------
d--------------------------------------------------------
a--------------------------------------------------------
E--------------------------------------------------------

e--------------------------------------------------------
b-12-12----------12--------------------------------------
g-------14-12-14----14----14-14-12-11-12-11--------------
d-------------------------------------------14-----------
a--------------------------------------------------------
E--------------------------------------------------------

e----------------------------------------------11--------
b-12-12----------12-------------------12-13-12-----------
g-------14-12-14----14----14-14-14-14--------------------
d--------------------------------------------------------
a--------------------------------------------------------
E--------------------------------------------------------

e----------------------------------------------------------
b-12-12----------12-13-12----------------------------------
g-------14-12-14----------14----14-14-12-11-12-11----11----
d-------------------------------------------------14----12-
a----------------------------------------------------------
E----------------------------------------------------------

e-------
b-----0-
g-------
d-14----
a-------
E-------

e----------------------------------------------------11--
b-12-12----------12-13-12------------------12-13-12------
g-------14-12-14----------14---14-14-14-14---------------
d--------------------------------------------------------
a--------------------------------------------------------
E--------------------------------------------------------
[ Tab from: http://www.guitartabs.cc/tabs/s/steve_vai/the_crying_machine_tab_ver_3.html ]
e------------------------------11--9---------------------
b-12-10-9-7-9--12-11--------12--------11-9-11------------
g--------------------11-----------------------11---------
d-----------------------11-------------------------------
a--------------------------------------------------------
E--------------------------------------------------------

e--9-12-11--------12-16-14------
b----------12--------------12---
g-------------11----------------
d-------------------------------
a-------------------------------
E-------------------------------

e--19-19-19-17-15-17-19-17--17-17-15-14-15-14--------------
b--------------------------------------------17-19-15-17-12
g----------------------------------------------------------
d----------------------------------------------------------
a----------------------------------------------------------
E----------------------------------------------------------

e--19-19-17-15-17-19-20-19-17--17-17-17-17-19-20-19-22(b)
b--------------------------------------------------------
g--------------------------------------------------------
d--------------------------------------------------------
a--------------------------------------------------------
E--------------------------------------------------------

e--------------------------------------------------------
b----8-----------------8--------------8------------------
g----7-----------------7--------------7------------------
d----6---------5-------6--------------6--------5---------
a----7-------5---7-----7-----5--------7------5---7-------
E-0----5-6-7---------0---6-7---3---0-----6-7-------------

e--------------------------------------------------------
b----8---------------------8---------------8-------------
g----7---------------------7---------------7-------------
d----6--0-7-9-7-5-7-(5)----6-------5-------6-------------
a----7---------------------7-----5---7-----7-----0-------
E-0----------------------0---6-7---------0---3-2---1-----

e--------------------------------------------------------
b----8-------------------------------7-8-----------------
g----7-------------------------7-8-9-----9---------------
d----6--------5---------5-7--9---------------9-11-12(v)--
a----7------5---7---5-7----------------------------------
E-0-----6-7----------------------------------------------
Comments