Steve Vai - Giant Balls Of Gold Chords & Tabs

 

Giant Balls Of Gold Chords & Tabs

Steve Vai Chords & Tabs

Version: 1 Type: Tab 0 ratings
1 star 2 stars 3 stars 4 stars 5 stars
comments

Giant Balls Of Gold Tab

    HEY FELLAS,

 I could'nt tab the whole thing, BUT, I;ve only seen one freakin tab of this song on
the internet(and it sucks) so i figured i should give it a shot.


 Standard Tuning
e------------------------------|
b----------------------------4-|
g----------------------------4-|
d----------------------------4-|
a-4--22-22-22-22--4-22-22-22-2-|
E-2--00-00-00-00--2-00-00-00---|


e------------------------------|
b------------------------------|
g----9***----------------------|  Riff (A)
d-11------11-9-/6--4-4--2--/4--|
a------------------------------|
E------------------------------|


e------------------------------|
b------------------------------|
g----9^(11)--------------------|
d-11--------11-9-6-9-6-4--2-/4-|  Riff (B)
a------------------------------|
E------------------------------|


e-------------------------------|
b-------------------------------|
g-----/13**-11-9-13-11-11-9-/11-|  Riff (C)
d-11----------------------------|
a-------------------------------|
E-------------------------------|
[ Tab from: http://www.guitartabs.cc/tabs/s/steve_vai/giant_balls_of_gold_tab.html ]
e---------------------------------------|
b----------------14-12---12-------------|
g-----13^(16)13-------/13---13-11-9-/11-|  Riff (D)
d-11------------------------------------|
a---------------------------------------|
E---------------------------------------|


e--------------------------------------|
b-----15-17-15-------------------------|
g-16-----------/16--14-14--12--14------|
d--------------------------------------|   Riff (E)
a--------------------------------------|
E--------------------------------------|


e--------------------------------------|
b-----15^(17)15--17-15----15-----------|
g--16------------------16----16--14----|
d--------------------------------------|  Riff (F)
a--------------------------------------|
E--------------------------------------|

e--------------------------------------|
b--------------------------------------|
g--12-14----12-14-12-------------------|  riff (G)
d-------------------14-12--------------|
a------------------------14-12---------|
E------------------------------15-12---|


Go back to riff (A) and start over to riff D but after the bend play this


e-------------17-----------------------|
b-14--17----17^--17^-------------------|
g--------------------------------------|
d--------------------------------------|
a--------------------------------------|
E--------------------------------------|

Sorry thats all I know
Comments