Steve Vai - Genocide Chords & Tabs

 

Genocide Chords & Tabs

Steve Vai Chords & Tabs

Version: 3 Type: Tab 0 ratings
1 star 2 stars 3 stars 4 stars 5 stars
comments

Genocide Tab

#----------------------------------PLEASE NOTE---------------------------------#
#This file is the author's own work and represents their interpretation of the #
#song. You may only use this file for private study, scholarship, or research. #
#------------------------------------------------------------------------------#
v/vai_steve/genocide.tab
From: moquaj@yahoo.com Sat Aug 5 12:55 2000
Figurer: Moquaj Gremlin
To: guitar@olga.net
Tabulature: Genocide Solo by Steve Vai

STEVE VAI - GENOCIDE (Solo)

Tabulature Explanation:
b--> bend
r--> realise bend
h--> hammer
p--> pull off
/--> slide up
\--> slide down
~--> vibration

Steve:...you like what you hear? Well, here it goes:

E ||----------------------------------|----------------------------------|
B ||-17b19--17b19--17-19-17-19-17-19~-|-/19-19-17p16-17-16b17---19-17----|
G ||----------------------------------|-------------------------------16-|
D ||----------------------------------|----------------------------------|
A ||----------------------------------|----------------------------------|
E ||----------------------------------|----------------------------------|

E ||----------------------------------|----------------------------------|
B ||----------------------------------|----------------------------------|
G ||-19~~-16b18r16--------------------|----------------------------------|
D ||----------------19-16-19~~--19-16-|----------------------------------|
A ||----------------------------------|-19-14-12h14-12b14-12-14b16r14-12-|
E ||----------------------------------|----------------------------------|
[ Tab from: http://www.guitartabs.cc/tabs/s/steve_vai/genocide_tab_ver_3.html ]
E ||----------------------------------|----------------------------------|
B ||-------------15b17---15b17r15-12--|----------------------------------|
G ||----------------------------------|-14-14b16-14b16r14----------14----|
D ||----------------------------------|-------------------16-14-16----16-|
A ||----------------------------------|----------------------------------|
E ||-14~~~~---------------------------|----------------------------------|

E ||-----------------------19-----19--|-19-19-------J-A-M-M-I-N'---------|
B ||------------------/19-19-19-19-19-|---19--------J-A-M-M-I-N'---------|
G ||-14b16r14-------------------------|----------------------------------|
D ||----------16-16-------------------|----------------------------------|
A ||----------------------------------|----------------------------------|
E ||----------------------------------|----------------------------------|

E ||----------------------------------|----------------------------------|
B ||-19-17----17-19----17b19~-r17-----|----------------------------------|
G ||-------18-------17------------18--|-17h18p17h18p17-18b20r18-17h18p17-|
D ||----------------------------------|----------------------------------|
A ||----------------------------------|----------------------------------|
E ||----------------------------------|----------------------------------|

E ||----------------------------------|----------------------------------|
B ||-18-17-14~~~----------------------|----------------------------------|
G ||----------------------------------|----------------------------------|
D ||----------------------------------|----------------------------------|
A ||----------------------------------|----------------------------------|
E ||----------------------------------|----------------------------------|


I hope I figured it out quite right.
Thank you for understanding. Remember. Life is good. :-)
2000 by: Moquaj (mail to: moquaj@yahoo.com )
Comments