Steve Vai - Freak Show Excess Chords & Tabs

 

Steve Vai Chords & Tabs

Version: 1 Type: Tab 0 ratings
1 star 2 stars 3 stars 4 stars 5 stars
comments

Freak Show Excess Tab

ive worked out all i coul some things might need some tweaking and adjusting but it is 
a hard son to work out. This how I play it not steve vai so it isnt 100% accurate butgood 
way. tis a long song i only know this bit at the moment

e-----------------------------------------------------|
b---------------8-8/10\7h8p7--------------------------|
g---------6h7/9--------------9-7-9/11\9-7\4-----------|
d-7-5-5-7-----------------------------------4b-5-7----|
a-----------------------------------------------------|
e-----------------------------------------------------|

e---------------7-9-10-7h9p7---------------------------------|
b-----------------------------10-8-10/12\10-8-6-5---5--------|
g---------6h7/9------------------------------------7---------|
d-7-5-5-7----------------------------------------------------|
a------------------------------------------------------------|
e------------------------------------------------------------|

steve plays this up the neck me thinks

e--------------3-------------------------------5--10-9b----------------12------|
b-------------------------------------------------------10/11\10\8/10----------|
g---(6bPinch)-4-3---------7-9-6h7p6--------------------------------------------|
d-5--------5-4----------------8-7-5-7-8-7-8-7----------------------------------|
a------------------------------------------------------------------------------|
e------------------------------------------------------------------------------|
[ Tab from: http://www.guitartabs.cc/tabs/s/steve_vai/freak_show_excess_tab.html ]
e-12b13r12 p10------------------------------|
b-------------13-11----------13/15-11-------|
g-------------------12-10-------------12----|
d--------------------------12---------------|
a-------------------------------------------|
e-------------------------------------------|

to be played as tightly as possible

e-13h15p13p10--------------------------------------------------------|
b-------------13p10-15p13p10-13h15p13-10-----------------------------|
g------------------------------------------12-10-14\12-10------------|
d----------------------------------------------------------12-10-----|
a--------------------------------------------------------------------|
e--------------------------------------------------------------------|

Tapping section (definitly wrong, sorry).

e------------8h12p8-15p12p8-15p12h8-15p12h15p12p8-------------|
b---------10--------------------------------------------------|
g-------9-----------------------------------------------------|
d----10-------------------------------------------------------|
a-12----------------------------------------------------------|
e-------------------------------------------------------------|

e-13p10p8p5h8h10p8p5---------------------|
b---------------------8p6-10\8-6---6-----|
g---------------------------------7--7---|
d----------------------------------------|
a----------------------------------------|
e----------------------------------------|

this bits quite tricky to get the timing
this is the main jist of the little fill
e---------------5--------------|
b-------5-----6--6-----8-------|
g-----6---6h7-----7--6---------|
d-8\7---------------5----------|
a------------------------------|
e------------------------------|

i welcome comments, my msn i lozzybloom@hotmail.com
Comments