Steve Vai - Final Guitar Solo Chords & Tabs

 

Final Guitar Solo Chords & Tabs

Steve Vai Chords & Tabs

Version: 1 Type: Tab 0 ratings
1 star 2 stars 3 stars 4 stars 5 stars
comments

Final Guitar Solo Tab

   
Steve Vai
"Final Guitar Solo" (Track #15)
From the movie "Bill & Ted's Bogus Journey"
From the 2003 album "The Elusive Light & Sound Volume 1"
Written and produced by Steve Vai
Co-produced by Pia (not really, but she wanted the credit, so...)
Transcribed by Matwey - matt_weird@mindless.com
Published on www.ultimate-guitar.com by Will S - the_godthat_failed@hotmail.com

OK, so I searched for 3 hours straight on the net for this, and this is all I
found. I've posted it here, so that you may learn the song in its glory.


Tuning : E A D G B E 	Time Signature: 4/4

Rythm line:
===========

 |               |               |               |                
|----------------------------------------------------------------|
|----------------------------------------------------------------|
|9---------------9---------------9---------------9---------------|
|9---------------9---------------9---------------9---------------|
|7---------------7---------------7---------------7---------------|
|--------0-0-0-----------0-0-0-----------0-0-0-----------0-0-0---|

 |               |               |               |                
|----------------------------------------------------------------|
|----------------------------------------------------------------|
|4---------------4---------------4---------------4-------4-------|
|4---------------4---------------4---------------4-------4-------|
|2-------2-2-2---2-------2-2-2---2-------2-2-2---2---2---2-------|
|----------------------------------------------------------------|

 |               |               |               |                
|----------------------------------------------------------------|
|----------------------------------------------------------------|
|6---------------6---------------6---------------6-------6-------|
|6---------------6---------------6---------------6-------6-------|
|4-------4-4-4---4-------4-4-4---4-------4-4-4---4---4---4-------|
|----------------------------------------------------------------|

 |               |               |               |                
|----------------------------------------------------------------|
|----------------------------------------------------------------|
|7---------------7---------------7-------------------------------|
|7---------------7---------------7---------------7-6-4-----------|
|5-------5-5-5---5-------5-5-5---5-------5-5-5---------7-6-4-----|
|----------------------------------------------------------------|

 |               |               |               |                
|----------------------------------------------------------------|
|----------------------------------------------------------------|
|9---------------9---------------9---------------9---------------|
|9---------------9---------------9---------------9---------------|
|7---------------7---------------7---------------7---------------|
|--------0-0-0-----------0-0-0-----------0-0-0-----------0-0-0---|

 |               |               |               |                
|----------------------------------------------------------------|
|----------------------------------------------------------------|
|4---------------4---------------4---------------4-------4-------|
|4---------------4---------------4---------------4-------4-------|
|2-------2-2-2---2-------2-2-2---2-------2-2-2---2---2---2-------|
|----------------------------------------------------------------|

 |               |               |               |                
|----------------------------------------------------------------|
|----------------------------------------------------------------|
|6---------------6---------------6---------------6-------6-------|
|6---------------6---------------6---------------6-------6-------|
|4-------4-4-4---4-------4-4-4---4-------4-4-4---4---4---4-------|
|----------------------------------------------------------------|
[ Tab from: http://www.guitartabs.cc/tabs/s/steve_vai/final_guitar_solo_tab.html ]
 |               |               |               |                
|----------------------------------------------------------------|
|----------------------------------------------------------------|
|7---------------7---------------2---------------4-------4-------|
|7---------------7---------------2---------------4-------4-------|
|5-------5-5-5---5-------5-5-5---0-------0-0-0---2---2---2-------|
|----------------------------------------------------------------|


Solo line:
==========

  |               |               |               |                 
|------------------------------------------------------------------|
|-9---------------10-b12-r10--9---10--------------9----------------|
|------------------------------------------------------------------|
|------------------------------------------------------------------|
|------------------------------------------------------------------|
|------------------------------------------------------------------|

  |               |               |               |                 
|------------------------------------------------------------------|
|-7----------------------------------------------------------------|
|-----------------9---------------8-----------------------8--------|
|-------------------------------------------------11---------------|
|------------------------------------------------------------------|
|------------------------------------------------------------------|

  |               |               |               |                 
|---------------------------------9---------------12---------------|
|-----------------9------------------------------------------------|
|-9----------------------------------------------------------------|
|------------------------------------------------------------------|
|------------------------------------------------------------------|
|------------------------------------------------------------------|

  |               |               |               |                 
|-10--------------12--------------14--------------14-12------------|
|------------------------------------------------------15-14-12----|
|---------------------------------------------------------------14-|
|------------------------------------------------------------------|
|------------------------------------------------------------------|
|------------------------------------------------------------------|

  |               |               |*tremolo.......|
|------------------------------------------------------------------|
|-----------------12------1412----------------------------------9--|
|-13------1413----------------14--14t(16)--------------------9-----|
|-------------14------------------------------------------9--------|
|------------------------------------------------------------------|
|------------------------------------------------------------------|

  |*tremolo.......|...............|               |
|------------------------------------------------------------------|
|-7t(9)------------------------------------------------------------|
|-----------------9t(11)----------8---------------9--8----11--9--8-|
|------------------------------------------------------9-----------|
|------------------------------------------------------------------|
|------------------------------------------------------------------|

  |               |               |               |                 
|---------------------------------9---------------12---------------|
|-----------------9---------------------------9--------------------|
|-9---------------------------9------------------------------------|
|-------------11---------------------------------------------------|
|------------------------------------------------------------------|
|------------------------------------------------------------------|

  |               |               |               |                 
|-10--------------12--------------12--------------14---------------|
|-------------------------------------------14---------------------|
|----------------------------------------------14------------------|
|------------------------------------------------------------------|
|------------------------------------------------------------------|
|------------------------------------------------------------------|

After this, there's a really high bit (that NOBODY knows except Steve Vai
himself), and then the rest is part of "God Gave Rock and Roll To You" by Kiss
(I think)

Good luck!

Will S.
Comments