Steve Vai - Bull Whip Chords & Tabs

 

Bull Whip Chords & Tabs

Steve Vai Chords & Tabs

Version: 1 Type: Tab 0 ratings
1 star 2 stars 3 stars 4 stars 5 stars
comments

Bull Whip Tab

   
www.mikesguitarsite.co.uk



Gtr I (E A D G B E) - 'Steve Vai'
Gtr II (E A D G B E) - 'Overdubs'
Gtr III (E A D G B E) - 'Overdub 2'
Q=146
 3/4
  Gtr I
        ~               ~                 ~
  E E E E +E  E   E E E E +E  E   E E E E Q
|---------------|---------------|------------|
|---------------|---------------|------------|
|---------------|---------------|------------|
|---------------|---------------|------------|
|---------------|---------------|---------4--|
|-3-5---5-(5)-5-|-6-5-0-5-(5)-5-|-6-5-5-6----|


          ~                                  ~~             ~~~
  E E E E Q    S S S S S S S S Q    E E E E  Q     E E E E +Q
|------------|--------------------|-------------|---------------|
|------------|--------------------|-------------|---------------|
|------------|--------------------|-------------|---------------|
|------------|-5h7p5p0-3h5p3p0----|---------10--|-10S7-5-7-(7)--|
|-5-4-4-5-7--|-----------------5S=|=8-----8-----|---------------|
|------------|--------------------|---6-8-------|---------------|


            ~
                                                    |--3--|   |-3--|   |-3-|
  S S S S E E +Q     E E E E +E  E   E E E  E Q     S  S  S E S  S S E S S S E
|------------------|---------------|-------------|-----------------------------|
|------------------|---------------|-------------|-----------------------------|
|------------------|---------------|---4-5----4--|-10h12p10p0-8h10p8p0-7h8p7p0-|
|-7p5--------------|-------7-(7)-3S|=5------7----|-----------------------------|
|-----7-5----------|-----5---------|-------------|-----------------------------|
|---------6-5-(5)--|-3-3-----------|-------------|-----------------------------|
|
| Gtr II
|                                             ~
|                                    E E E  E Q
|------------------|---------------|-------------|-----------------------------|
|------------------|---------------|---3-4----3--|-----------------------------|
|------------------|---------------|--------5----|-----------------------------|
|------------------|---------------|-------------|-----------------------------|
|------------------|---------------|-------------|-----------------------------|
|------------------|---------------|-------------|-----------------------------|
|
| Gtr III
|                                             ~
|                                    E E E  E Q
|------------------|---------------|-------------|-----------------------------|
|------------------|---------------|---8-9----9--|-----------------------------|
|------------------|---------------|-------10----|-----------------------------|
|------------------|---------------|-------------|-----------------------------|
|------------------|---------------|-------------|-----------------------------|
|------------------|---------------|-------------|-----------------------------|

[ Tab from: http://www.guitartabs.cc/tabs/s/steve_vai/bull_whip_tab.html ]
                                             ~
  E E E E +Q     E Q  +E  +Q     +E  S S S S E +Q     Q  E E Q
|--------------|---------------|--------------------|-----------|
|--------------|---------------|--------------------|-----------|
|-5-4----------|---------------|--------------------|--------6--|
|-----3-5-(5)--|-7-------------|-----7-7-7-8-7-(7)--|----7-8----|
|--------------|---0--(0)-(0)--|-(0)----------------|-0---------|
|--------------|---------------|--------------------|-----------|
|
|                                            ~
|                                 E  S S S S E +Q
|--------------|---------------|--------------------|-----------|
|--------------|---------------|-----6-6-6-7-6-(6)--|-----------|
|--------------|---------------|--------------------|-----------|
|--------------|---------------|--------------------|-----------|
|--------------|---------------|--------------------|-----------|
|--------------|---------------|--------------------|-----------|
|
|                                            ~
|                                 E  S S S S E +Q
|--------------|---------------|--------------------|-----------|
|--------------|---------------|-----5-5-5-6-5-(5)--|-----------|
|--------------|---------------|--------------------|-----------|
|--------------|---------------|--------------------|-----------|
|--------------|---------------|--------------------|-----------|
|--------------|---------------|--------------------|-----------|


                     ~~
   S  S  S  S  S  S  E  +Q     E E E E +E   E   E E E E E E
|----------------------------|----------------|-------------|
|----------------------------|----------------|-------------|
|--------------------6--(6)--|-7-6-7-9-(9)-10-|---------9---|
|--8--7--7--7--7--8----------|----------------|-8-7---------|
|----------------------------|----------------|-----8-7-----|
|----------------------------|----------------|-------------|
|
|                    ~~
|  S  S  S  S  S  S  E  +Q
|----------------------------|----------------|-------------|
|-------------------14-(14)--|----------------|-------------|
|-15-14-14-14-14-15----------|----------------|-------------|
|----------------------------|----------------|-------------|
|----------------------------|----------------|-------------|
|----------------------------|----------------|-------------|
|
|                    ~~
|  S  S  S  S  S  S  E  +Q
|-18-17-17-17-17-18-21-(21)--|----------------|-------------|
|----------------------------|----------------|-------------|
|----------------------------|----------------|-------------|
|----------------------------|----------------|-------------|
|----------------------------|----------------|-------------|
|----------------------------|----------------|-------------|


 4/4
           ~~                                                          ~~
  S S S S  Q   +Q.   E   +Q   S S S S  E  Q  E   +Q   S S S S S S S S  Q
|----------------------|-----------------------|--------------------------|
|----------------------|-----------------------|--------------------------|
|-9-8-8-9S12--(12)-----|------9-8-8-9-12-12----|------9-8-8-8-9-8-8-9-12--|
|----------------------|-----------------------|--------------------------|
|--------------------0-|-(0)-----------------0-|-(0)----------------------|
|----------------------|-----------------------|--------------------------|


   E  E  E E  E  E E E   E E E E Q.   E    S S S S  S S S S Q.   E
|----------------------|----------------|--------------------------|
|-13---------10--------|----------------|--------------------------|
|----12S10-9----10S7-7-|-7-6-6-7-9------|-12-7-7-7-12-7-7-7-6------|
|----------------------|----------------|--------------------------|
|----------------------|--------------0-|------------------------0-|
|----------------------|----------------|--------------------------|


  +E   S S S S S S  S S S S Q    E Q  E +E  E +E  E   +E  E E E E E E E
|------------------------------|--------------------|--------------------*|
|------------------------------|--------------------|--------------------*|
|-----12-7-7-7-7-7-12-7-7-7-6--|--------------------|--------------------*|
|------------------------------|--------------------|--------------------*|
|-(0)--------------------------|--------------------|-----------3--------*|
|------------------------------|---0--1-(1)-2-(2)-3-|-(3)-5---0---5-4-3\-*|
Comments