Steve Vai - Blood And Glory Chords & Tabs

 

Blood And Glory Chords & Tabs

Steve Vai Chords & Tabs

Version: 2 Type: Tab 0 ratings
1 star 2 stars 3 stars 4 stars 5 stars
comments

Blood And Glory Tab

   
BLOOD AND GLORY
                            As recorded by Steve Vai
                  (From the 2000 Album ALIVE IN AN ULTRA WORLD)


 Intro
  Q=104
             Bb5           Eb5     Bb5     G#5     C#5 Eb5   C#5   G#G#5
 4/4
  Gtr I
|----------|-------------------3-|-----------------4-|-6--3--4p3-------3---|
|----------|-6-------(6)---4-4---|-6-------(6)-4-4---|-----------6-4-------|
|-------3--|---------------------|-------------------|---------------------|
|----------|---------------------|-------------------|---------------------|
|----------|---------------------|-------------------|---------------------|
|----------|---------------------|-------------------|---------------------|
|
| Gtr II
|----------|---------------------|-------------------|---------------------|
|----------|---------------------|-------------------|---------------------|
|----------|---------------------|-------------------|---------------------|
|----------|---------------8-8---|-----------------6-|-8-----6-6---6-------|
|----------|-8---8-8--x--x-6-6---|-8---8-8--6--6---4-|-6-----4-4---3-6-----|
|----------|-6---6-6--x--x-------|-6---6-6--4--4-----|---------------4-----|


  Bb5           Eb5     Bb5           G#5 C#5
|-------------------3-|-------------------4-|
|-6-------(6)---4-4---|-6-------(6)---4-4---|
|---------------------|---------------------|
|---------------------|---------------------|
|---------------------|---------------------|
|---------------------|---------------------|
|
|---------------------|---------------------|
|---------------------|---------------------|
|---------------------|---------------------|
|---------------8-8---|-------------------6-|
|-8---8-8--x--x-6-6---|-8---8-8--x--x-6-6-4-|
|-6---6-6--x--x-------|-6---6-6--x--x-4-4---|


  F#5   G#5
|-6--4------------|-------------------||
|-------7-6-4---4-|-6------(6)--------||
|-------------6---|------------x-15---||
|-----------------|-------------------||
|-----------------|-------------------||
|-----------------|-------------------||
|
|-----------------|-------------------||
|-----------------|-------------------||
|-----------------|-------------------||
|-----------------|-8--10--12----13---||
|-4--4--6-----6---|-------------------||
|-2--2--4-----4---|-------------------||


 Main Theme
  Bb5               Eb5        Bb5        G#5        C#5
|-------------------------15-|-----------------------16-|
|-18---------(18)---16-16----|-18---------(18)-16-16----|
|----------------------------|--------------------------|
|----------------------------|--------------------------|
|----------------------------|--------------------------|
|----------------------------|--------------------------|
|
|----------------------------|--------------------------|
|----------------------------|--------------------------|
|-------------------15-15----|-----------------------13-|
|-15---15-15---x--x-13-13----|-15---15-15--13--13----11-|
|-13---13-13---x--x----------|-13---13-13--11--11-------|
|----------------------------|--------------------------|


  Eb5     C#5      G#/G#5     Bb5  Bb5          Eb5
|-18--15--16p15----------15-|-------------------------15--|
|---------------18-16-------|-18---------(18)---16-16-----|
|---------------------------|-----------------------------|
|---------------------------|-----------------------------|
|---------------------------|-----------------------------|
|---------------------------|-----------------------------|
|
|---------------------------|-----------------------------|
|---------------------------|-----------------------------|
|-15------13-13----13-------|-------------------15-15-----|
|-13------11-11----10-13----|-15---15-15---x--x-13-13-----|
|---------------------11----|-13---13-13---x--x-----------|
|---------------------------|-----------------------------|


  Bb5               G#5   C#5  F#5     G#5      G#5
|-------------------------16-|-18--16-----------------|
|-18---------(18)---16-16----|---------19-18-16----16-|
|----------------------------|------------------18----|
|----------------------------|------------------------|
|----------------------------|------------------------|
|----------------------------|------------------------|
|
|----------------------------|------------------------|
|----------------------------|------------------------|
|-------------------------13-|------------------------|
|-15---15-15---x--x-13-13-11-|-11--11--13-------13----|
|-13---13-13---x--x-11-11----|--9---9--11-------11----|
|----------------------------|------------------------|


  N.C.              N.C.
|-----------------|-------------|
|-18--------------|-(18)--------|
|-----------------|-------------|
|-----------------|-------------|
|-----------------|-------------|
|-----------------|-------------|
|
|-----------------|-------------|
|---------15--16--|--18---------|
|-15--17----------|-------------|
|-----------------|-------------|
|-----------------|-------------|
|-----------------|-------------|


    N.C.
|-------------|-----------------|------------------|-----------------|
|-----3-4---6-|-3--3----------3-|-4--4-6-6--(6)----|-----------3-----|
|---5---------|------5p3-5--5---|----------------5-|-7----(7)----5p3-|
|-------------|-----------------|------------------|-----------------|
|-------------|-----------------|------------------|-----------------|
|-------------|-----------------|------------------|-----------------|


  N.C.
|-----3-3-----|--------------|-5------------|-------------||
|-6-----------|-5--5-6-6---8-|----6-------8-|-8--------3--||
|-----------7-|--------------|-------7--5---|--------5----||
|-------------|--------------|--------------|-------------||
|-------------|--------------|--------------|-------------||
|-------------|--------------|--------------|-------------||


  N.C.
|-----------------|---------------|-------4-4--------|------------|
|-4--4-6-3--3-----|------3--------|---4-6-----4----6-|-6----------|
|-------------5p3-|-5--5---3--3-5-|-6-----------5----|------------|
|-----------------|---------------|------------------|------------|
|-----------------|---------------|------------------|--------x---|
|-----------------|---------------|------------------|--------x---|


  N.C.
|------------------|---------------------|
|------------------|--------11-12--12-14-|
|-6--6-8-10--10-11-|-13--13--------------|
|------------------|---------------------|
|------------------|---------------------|
|------------------|---------------------|
|
| Gtr II
|------------------|---------------------|
|------------------|---------------------|
|------------------|---------------------|
|------------------|---------------------|
|------------------|---------------------|
|-2----------------|--1---------0--------|


|--------------------------13-|-13-----13-------|
|-16----16-16-16-16---16------|-----------------|
|-----------------------------|-----------x-15--|
|-----------------------------|-----------------|
|-----------------------------|-----------------|
|-----------------------------|-----------------|
|
|-----------------------------|-----------------|
|-----------------------------|-----------------|
|-----------------------------|-----------------|
|-----------------------------|-----------------|
|--6--------------6----6------|--8--6---5-------|
|-----6-------------6----6----|--------------8--|


  Bb5             Eb5        Bb5      G#5        C#5
|-----------------------15-|---------------------16-|
|-18-------(18)---16-16----|-18-------(18)-16-16----|
|--------------------------|------------------------|
|--------------------------|------------------------|
|--------------------------|------------------------|
|--------------------------|------------------------|
|
|--------------------------|------------------------|
|--------------------------|------------------------|
|--------------------------|------------------------|
|------------------8--8----|----------------------6-|
|--8---8-8---x--x--6--6----|--8---8-8---6---6-----4-|
|--6---6-6---x--x----------|--6---6-6---4---4-------|


  Eb5     C#5      G#/G#5    Bb5             Eb5
|-18--15--16p15---------15-|-----------------------15--|
|---------------18-16------|-18-------(18)---16-16-----|
|--------------------------|---------------------------|
|--------------------------|---------------------------|
|--------------------------|---------------------------|
|--------------------------|---------------------------|
|
|--------------------------|---------------------------|
|--------------------------|---------------------------|
|--------------------------|---------------------------|
|--8-------6--6-----6------|------------------8--8-----|
|--6-------4--4-----3-6----|--8---8-8---x--x--6--6-----|
|---------------------4----|--6---6-6---x--x-----------|


  Bb5             G#5   C#5  F#5     G#5              N.C.
|-----------------------16-|-18--16-----------------|---------------||
|-18-------(18)---16-16----|---------19-18-16----16-|-18------------||
|--------------------------|------------------18----|---------------||
|--------------------------|------------------------|---------------||
|--------------------------|------------------------|---------------||
|--------------------------|------------------------|---------------||
|
|--------------------------|------------------------|---------------||
|--------------------------|------------------------|---------------||
|--------------------------|------------------------|--3--5--7--8---||
|------------------------6-|------------------------|---------------||
|--8---8-8---x--x--6--6--4-|--4---4---6--------6----|---------------||
|--6---6-6---x--x--4--4----|--2---2---4--------4----|---------------||


  N.C.
|-------------------|------------------------|
|--------15-16---18-|-15--15--------------15-|
|-----17------------|--------17p15-17--17----|
|-------------------|------------------------|
|-------------------|------------------------|
|-------------------|------------------------|
|
|-------------------|------------------------|
|------9-11-13---13-|-11------------9---9-11-|
|-10----------------|-----10-----------------|
|-------------------|------------------------|
|-------------------|------------------------|
|-------------------|------------------------|


|----------------------|----------------------|
|-16--16-18-18---------|-------------15-------|
|-------------------17-|-19----(19)-----17p15-|
|----------------------|----------------------|
|----------------------|----------------------|
|----------------------|----------------------|
|
|----------------------|----------------------|
|-13--13-11-13---10----|-11-------------------|
|----------------------|--------10------------|
|----------------------|----------------------|
|----------------------|----------------------|
|----------------------|----------------------|


  N.C.
|--------15-15------|----------------15-|
|-18-------------15-|-17--17-18-18------|
|-------------------|-------------------|
|-------------------|-------------------|
|-------------------|-------------------|
|-------------------|-------------------|
|
|-10-----10---------|-----------10------|
|-----13----15---12-|-13--13-13------13-|
|-------------------|-------------------|
|-------------------|-------------------|
|-------------------|-------------------|
|-------------------|-------------------|


|-17------------------------15-|-15----(15)---------||
|-----18--15-------------------|-----------------15-||
|---------------------17-------|------------x-17----||
|------------------------------|--------------------||
|------------------------------|--------------------||
|------------------------------|--------------------||
|
|-13--10-----------------------|---------------8-10-||
|---------11-10-------10s13----|--------------------||
|---------------12-10----------|-17-----------------||
|------------------------------|--------------------||
|------------------------------|--------------------||
|------------------------------|--------------------||


  N.C.
|----------------------|----------------------|
|-16---18-15--15-------|----------------------|
|----------------17-15-|-17---17-19-15--15-17-|
|----------------------|----------------------|
|----------------------|----------------------|
|----------------------|----------------------|
|
|----------------------|----------------------|
|-13---13-11-----------|--9p8--9--------------|
|-------------10-------|------------12-----12-|
|----------------------|----------------------|
|----------------------|----------------------|
|----------------------|----------------------|


|----------16-16-------------|------------------------------|
|----16-18----------16----18-|-16h18------(18)-16-15--------|
|-18-------------------17----|------------------------------|
|----------------------------|------------------------------|
|----------------------------|------------------------x-x---|
|----------------------------|------------------------x-x---|
|
|--------9-----9h11--8-------|-11p=8------------------------|
|--9--------------------9----|-------11-9--11---------------|
|----------------------------|------------------------------|
|----------------------------|------------------------------|
|----------------------------|------------------------------|
|----------------------------|------------------------------|


  N.C.
|---------------------|-16--16-18-19--19-21-|
|-14--14-16-18--18-19-|---------------------|
|---------------------|---------------------|
|---------------------|---------------------|
|---------------------|---------------------|
|---------------------|---------------------|
|
|------------------11-|-13--13-14-16--16-18-|
|-11--11-13-14--14----|---------------------|
|---------------------|---------------------|
|---------------------|---------------------|
|---------------------|---------------------|
|---------------------|---------------------|
|
| Gtr III
|---------------------|---------------------|
|---------------------|---------------------|
|---------------------|---------------------|
|---------------------|---------------------|
|---------------------|---------------------|
|--2------------------|--1---------0--------|


|-21b23========21-(21)----21----21---21r---23b25==|=(23)-------(23)r---------||
|-------------------------------------------------|--------------------------||
|-------------------------------------------------|------------------x-15----||
|-------------------------------------------------|--------------------------||
|-------------------------------------------------|--------------------------||
|-------------------------------------------------|--------------------------||
|
|-------------------------------------------------|--------------------------||
|-16----------------------------------------------|--------------------------||
|--------18-17-15------15-17-15-15----------------|--15b17-------------15\---||
|------------------18-----------------------------|--------------------------||
|-------------------------------------------------|--------------------------||
|-------------------------------------------------|--------------------------||
|
|-------------------------------------------------|--------------------------||
|-------------------------------------------------|--------------------------||
|-------------------------------------------------|--------------------------||
|-------------------------------------------------|--------------------------||
|--6-----------------------------6----6-----------|---8-----6----5-----------||
|-------------------6--------------6-----6--------|---------------------8----||


  Bb5             Eb5        Bb5      G#5        C#5
|-----------------------15-|---------------------16-|
|-18-------(18)---16-16----|-18-------(18)-16-16----|
|--------------------------|------------------------|
|--------------------------|------------------------|
|--------------------------|------------------------|
|--------------------------|------------------------|
|
|--------------------------|------------------------|
|--------------------------|------------------------|
|--------------------------|------------------------|
|------------------8--8----|----------------------6-|
|--8---8-8---x--x--6--6----|--8---8-8---6---6-----4-|
|--6---6-6---x--x----------|--6---6-6---4---4-------|


  Eb5     C#5      G#/G#5    Bb5             Eb5
|-18--15--16p15---------15-|-----------------------15--|
|---------------18-16------|-18-------(18)---16-16-----|
|--------------------------|---------------------------|
|--------------------------|---------------------------|
|--------------------------|---------------------------|
|--------------------------|---------------------------|
|
|--------------------------|---------------------------|
|--------------------------|---------------------------|
|--------------------------|---------------------------|
|--8-------6--6-----6------|------------------8--8-----|
|--6-------4--4-----3-6----|--8---8-8---x--x--6--6-----|
|---------------------4----|--6---6-6---x--x-----------|


 Guitar solo
  Bb5             G#5   C#5  F#5     G#5
|-----------------------16-|-18--16-----------------|
|-18-------(18)---16-16----|---------19-18-16----16-|
|--------------------------|------------------18----|
|--------------------------|------------------------|
|--------------------------|------------------------|
|--------------------------|------------------------|
|
|--------------------------|------------------------|
|--------------------------|------------------------|
|--------------------------|------------------------|
|------------------------6-|------------------------|
|--8---8-8---x--x--6--6--4-|--4---4---6--------6----|
|--6---6-6---x--x--4--4----|--2---2---4--------4----|


                          G#/Eb  G#5/Eb
|----------------13----||-15b16r=====(15)-13---------------------|
|-18--------(18)----13-||--------------------16-15b16r==(15)b16r=|
|----------------------||----------------------------------------|
|----------------------||----------------------------------------|
|----------------------||----------------------------------------|
|----------------------||----------------------------------------|
|
|----------------------||--------4--------------------8----------|
|----------------------||--------4---------------8---------------|
|----------------------||--5-------5-----------------------------|
|----------------------||--6--------------10---------------------|
|--------5----6--------||--6-------------------------------------|
|--6--8----------------||----------------------------------------|


  N.C.
|--------------------------------------------|---------------------------------------|
|-(15)-13----------13------------------------|-16-18--------------16-18--------------|
|---------15-13-15----15---13h15-------17----|--------------17-----------------17----|
|-----------------------------------------15-|-------15--------15-------15--------15-|
|--------------------------------------------|---------------------------------------|
|--------------------------------------------|---------------------------------------|
|
|------------------------------6-------------|----------4----------------------------|
|-------------------6----------------6-----6-|------------4----------------8---------|
|----------7-----------7-7-------7-7----7----|--------5------5-----------8---8-------|
|---8------------8---------------------------|--6-----------------10-----------10----|
|--------------------------------------------|---------------------------------------|
|--------------------------------------------|---------------------------------------|


                                               ~~
|------------------------------------------------------|
|-16pb18r(16)-15---------------------------------------|
|----------------17pb19r==(17)-15-13-------------------|
|------------------------------------15-13-15-15-------|
|------------------------------------------------------|
|------------------------------------------------------|
|
|-----------------6----------------------------6-------|
|-----------------------6-------------------6----6-----|
|--------------7----------------7--------7---------7---|
|--8-------------------------------8-----------------8-|
|------------------------------------------------------|
|------------------------------------------------------|


  G#
                                                        \0.5/
|---16b17r(16)-16p13------------------------------------------|
|--------------------16p13------------------------------------|
|--------------------------15p13------------------------------|
|--------------------------------15p13-(13)-13b15r(13)-12-----|
|-------------------------------------------------------------|
|-------------------------------------------------------------|
|
|-------------------------------------------------------------|
|-4------------------------------------------8----------------|
|-5-------------5------------------------8--------------------|
|-6------------------------10---------------------------------|
|-------------------------------------------------------------|
|-------------------------------------------------------------|


    \0.5/
|------------------------------------------------------|--------------------------------------------------------------|
|------------------------------------------------------|--------------------------------------------------------13----|
|------------------------------------------------------|-17s15----------17s15----------13----15b17---15p13------------|
|-(12)----13p12-(12)-----------------------------15-15-|----------15-15----------15-13----13-----------------15-------|
|--------------------15-13-11-15-13-13---(13)-13-------|-------13-------------13--------------------------------------|
|------------------------------------------------------|--------------------------------------------------------------|
|
|-----------------6------------------------6-----------|-----------------4--------------------------------------------|
|---------------------6----------------6-------6-------|-----------------------4-------------------8-------------8----|
|----------7-------------7-----------7------------7----|-----------5--------------5-----------8------------8----------|
|---8--------------------------8---------------------8-|--6----------------------------10------------10---------------|
|------------------------------------------------------|--------------------------------------------------------------|
|------------------------------------------------------|--------------------------------------------------------------|


  N.C.
|--------------------------------13---------|
|-------------------16b18---(16)----16p==13-|
|-15----------------------------------------|
|-------------------------------------------|
|-------------------------------------------|
|-------------------------------------------|
|
|--------6----------------------------------|
|------6---6--------------------------------|
|----7-------7------------------------------|
|--8-----------8-8--------7-----------------|
|---------------------------------8----8----|
|-------------------------------------------|

[ Tab from: http://www.guitartabs.cc/tabs/s/steve_vai/blood_and_glory_tab_ver_2.html ]
|-------13---------------13-------------13-------------13---------------13----------------------------------|
|-16b18----16p13-16b18------16p13-16b18----16p13-16b18----16p13-16b18------16p13----13h16p13----13h16p13----|
|--------------------------------------------------------------------------------15----------15-------------|
|-----------------------------------------------------------------------------------------------------------|
|-----------------------------------------------------------------------------------------------------------|
|-----------------------------------------------------------------------------------------------------------|
|
|----------------------------4-----------4----------------------------------------8-------------------------|
|----------------------4-----------4----------------------------------8-----------------8-----------8-------|
|--------------5----------------------------------------------8-------------8-----------------8-------------|
|--6---------------------------------------------------10---------------------------------------------------|
|-----------------------------------------------------------------------------------------------------------|
|-----------------------------------------------------------------------------------------------------------|


  N.C.
|----------------------------------------------------------------16-(16)s18-|
|----13h16p13----13h16p13----13h16p==13-------------------------------------|
|-15----------15----------15------------15p13----13s15----------------------|
|---------------------------------------------15----------------------------|
|---------------------------------------------------------------------------|
|---------------------------------------------------------------------------|
|
|--------------------------6----------------6----------------6--------------|
|--------------6-------------------6---------------------6-----6----------6-|
|--------------------7---------------------------------7---7------7---------|
|--8-------------------------------------------------8----------------------|
|---------------------------------------------------------------------------|
|---------------------------------------------------------------------------|


|-18-(18)s15-15-(15)s16-16-(16)s13-13-(13)s15-15-(15)s11-11-(11)s13-11h13p==11-10h11----|
|---------------------------------------------------------------------------------------|
|---------------------------------------------------------------------------------------|
|---------------------------------------------------------------------------------------|
|---------------------------------------------------------------------------------------|
|---------------------------------------------------------------------------------------|
|
|------------------------4-------------------------------------------8------------------|
|-------------4------------------4----------4-------------8---------------8--------8----|
|----------5----------5--------------------------------8----------8-------------8-------|
|--6--------------------------------6---------10----------------------------------------|
|---------------------------------------------------------------------------------------|
|---------------------------------------------------------------------------------------|


  N.C.
|-10h11p10s8h10-8h10p8s6h8-6h8p6s4h6-4h6p4s3h4-3h4p3---------|
|----------------------------------------------------4-(4)s6-|
|------------------------------------------------------------|
|------------------------------------------------------------|
|------------------------------------------------------------|
|------------------------------------------------------------|
|
|--------------------6-----6-------------------6-------------|
|-------------6----------6---------------6---------6---------|
|--------7------7--------------------7-------7-------7-----7-|
|--8-------------------------------8-------------------------|
|------------------------------------------------------------|
|------------------------------------------------------------|


|----------------------------------------------|
|-------------6----------------6---------------|
|-5-(5)s3-3-3-----5-(5)s3--3-3-----5-(5)s3-3---|
|----------------------------------------------|
|----------------------------------------------|
|----------------------------------------------|
|
|-------------4--------------------8-----------|
|---------4-----4-------4------8---------8---8-|
|-------5---5----------------8---8---------8---|
|-6---------------6-------10-------------------|
|----------------------------------------------|
|----------------------------------------------|


  N.C.
  /0.5\    /0.5\
|----------------------------------------------------|
|----------------------------------------------------|
|-5-------(5)------5b6r==(5)-3-(3)s1---1-3-------1---|
|------------------------------------3-------------3-|
|----------------------------------------------------|
|----------------------------------------------------|
|
|------------------6---------6---------------6-------|
|----------6-----------6-----------------6-----6-----|
|-------7--------7---------------------7---7-----7-7-|
|-8----------------------------------8---------------|
|----------------------------------------------------|
|----------------------------------------------------|


|--------------------------------------------------|--------------------------------|
|--------------------------------------------------|--------------------------------|
|--------------------------------------------------|--------------------------------|
|-3b5r==(3)-1--------------------------------------|--------------------------------|
|---------------3b5r==(3)----1---3---3b5r==(3)-1---|-1------------------------------|
|--------------------------------------------------|--------------------------------|
|
|---------------4--------------------8-------------|---------6---6---------6--------|
|-----------4-------4-----4------8-------8-------8-|-----6-----6-------6-----6------|
|-----5-------5----------------8---8-----------8---|---7---7---------7---7-----7-7--|
|-6--------------------6----10---------------------|-8-------------8----------------|
|--------------------------------------------------|--------------------------------|
|--------------------------------------------------|--------------------------------|


  F#5
|-18p14----14----------14-18p14----14----------14-18p14----14----------14-18p14----14-------|
|-------18----18p14-18----------18----18p14-18----------18----18-14h18----------18----18p14-|
|-------------------------------------------------------------------------------------------|
|-------------------------------------------------------------------------------------------|
|-------------------------------------------------------------------------------------------|
|-------------------------------------------------------------------------------------------|
|
|-------------------------------------------------------------------------------------------|
|-------------------------------------------------------------------------------------------|
|-------------------------------------------------------------------------------------------|
|-------------------------------------------------------------------------------------------|
|--4-----------------------------4-----------4-----------------------------------4----------|
|--2-----------------------------2-----------2-----------------------------------2----------|


  G#5
|-20p16----------16h20p16------------16h20p16----------16h20p16-------20p16------------16-|
|-------20p16h20----------20p16h20------------20p16h20----------20p16-------20p==16h20----|
|-----------------------------------------------------------------------------------------|
|-----------------------------------------------------------------------------------------|
|-----------------------------------------------------------------------------------------|
|-----------------------------------------------------------------------------------------|
|
|-----------------------------------------------------------------------------------------|
|-----------------------------------------------------------------------------------------|
|-----------------------------------------------------------------------------------------|
|-----------------------------------------------------------------------------------------|
|--6-------------------------------6-----------6-------------------------------6----------|
|--4-------------------------------4-----------4-------------------------------4----------|


  N.C.
|-18--18--16h18p16s15h16p15h16p15-------------------------|
|---------------------------------18-16h18p16s15h16p15h16-|
|---------------------------------------------------------|
|---------------------------------------------------------|
|---------------------------------------------------------|
|---------------------------------------------------------|
|
|---------------------------------------------------------|
|---------------------------------------------------------|
|---------------------------------------------------------|
|---------------------------------------------------------|
|----------5-----------------------6----------------------|
|--6---8--------------------------------------------------|


|-----------------------------------------------------------------------|
|-15-13h15p13-----------------------------------------------------------|
|-------------15p13p12h13p12h13p12h13h15-13h15p13s12h13-12-10-8h10p8s7--|
|-----------------------------------------------------------------------|
|-----------------------------------------------------------------------|
|-----------------------------------------------------------------------|
|
|-----------------------------------------------------------------------|
|-----------------------------------------------------------------------|
|-----------------------------------------------------------------------|
|--------------------5--------------------6--------------8--------------|
|--8--------------------------------------------------------------------|
|-----------------------------------------------------------------------|


  N.C.
|-----------------------------------|------------||
|-----------------------------------|------------||
|-8p7-------------------------------|------------||
|-----10s8p=6h8p6h8p6h8p6h8p6h8p6h8-|-(8)--------||
|-----------------------------------|------------||
|-----------------------------------|------------||
|
|-----------------------------------|------------||
|-----------------------------------|------------||
|-------------------7-------8-------|-10---------||
|-8--------10-----------------------|------------||
|-----------------------------------|------------||
|-----------------------------------|------------||


|-------------------|--------------------------|
|------15-16--16-18-|-15--15--------------15---|
|---17--------------|--------17p15-17--17------|
|-------------------|--------------------------|
|-------------------|--------------------------|
|-------------------|--------------------------|
|
|-------------------|--------------------------|
|----9-11-13--13-13-|-11------------9---9-11---|
|-------------------|-----10-------------------|
|-------------------|--------------------------|
|-------------------|--------------------------|
|-------------------|--------------------------|


  N.C.
|------------------------|----------------------|
|-16---18-18--(18)-------|-------------15-------|
|---------------------17-|-19----(19)-----17-15-|
|------------------------|----------------------|
|------------------------|----------------------|
|------------------------|----------------------|
|
|------------------------|----------------------|
|-13---11-13-------10----|-11-------------------|
|------------------------|-------------10-------|
|------------------------|----------------------|
|------------------------|----------------------|
|------------------------|----------------------|


|--------15-15------|----------------15--|
|-18-------------15-|-17--17-18-18-------|
|-------------------|--------------------|
|-------------------|--------------------|
|-------------------|--------------------|
|-------------------|--------------------|
|
|-10-----10---------|-----------10-------|
|-----13----15---12-|-13--13-13------13--|
|-------------------|--------------------|
|-------------------|--------------------|
|-------------------|--------------------|
|-------------------|--------------------|


  N.C.
|-17------------------------15-|-15----(15)---------|
|-----18--15-------------------|-----------------15-|
|---------------------17-------|------------x-17----|
|------------------------------|--------------------|
|------------------------------|--------------------|
|------------------------------|--------------------|
|
|-13--10-----------------------|---------------8-10-|
|---------11-10-------11s13----|-17-----------------|
|---------------12-10----------|--------------------|
|------------------------------|--------------------|
|------------------------------|--------------------|
|------------------------------|--------------------|


|------------------------|------------------------|
|-16--16-18-15--15-------|------------------------|
|------------------17-15-|-17---17-19-15--15-17---|
|------------------------|------------------------|
|------------------------|------------------------|
|------------------------|------------------------|
|
|------------------------|------------------------|
|-13-----13-11-----------|--9p8--9----------------|
|---------------10-------|------------12-----12---|
|------------------------|------------------------|
|------------------------|------------------------|
|------------------------|------------------------|


  N.C.
|----------16-16-------------|----------------------------|
|----16-18----------16----18-|-16-18------(18)-16-15------|
|-18-------------------17----|----------------------------|
|----------------------------|------------------------x-x-|
|----------------------------|------------------------x-x-|
|----------------------------|----------------------------|
|
|--------9-----9h11--8-------|-11--8----------------------|
|--9--------------------9----|-------11-9--11-------------|
|----------------------------|----------------------------|
|----------------------------|----------------------------|
|----------------------------|----------------------------|
|----------------------------|----------------------------|
|
| Gtr III
|----------------------------|----------------------------|
|----------------------------|----------------------------|
|----------------------------|----------------------------|
|----------------------------|----------------------------|
|----------------------------|----------------------------|
|----------------------------|----------------------------|


|---------------------|-16--16-18-19--19-21-|
|-14--14-16-18--18-19-|---------------------|
|---------------------|---------------------|
|---------------------|---------------------|
|---------------------|---------------------|
|---------------------|---------------------|
|
|------------------11-|-13--13-14-16--16-18-|
|-11--11-13-14--14----|---------------------|
|---------------------|---------------------|
|---------------------|---------------------|
|---------------------|---------------------|
|---------------------|---------------------|
|
|---------------------|---------------------|
|---------------------|---------------------|
|---------------------|---------------------|
|---------------------|---------------------|
|---------------------|---------------------|
|--2------------------|--1---------0--------|


 Outro
  N.C.
|-21b23=======================(21)r==(21)---23-|-23b25==23----23----23r--------||
|----------------------------------------------|-------------------------------||
|----------------------------------------------|------------------------x-15---||
|----------------------------------------------|-------------------------------||
|----------------------------------------------|-------------------------------||
|----------------------------------------------|-------------------------------||
|
|----------------------------------------------|-------------------------------||
|-16-------------------------------------------|-------------------------------||
|--------18-17-15----15-17-15--15--------------|-15b17=====15----15-15----15r--||
|-----------------18---------------------------|-------------------------------||
|----------------------------------------------|-------------------------------||
|----------------------------------------------|-------------------------------||
|
|----------------------------------------------|-------------------------------||
|----------------------------------------------|-------------------------------||
|----------------------------------------------|-------------------------------||
|----------------------------------------------|-------------------------------||
|--6----------------------------6------6-------|--8---------6--------5---------||
|------------------6---------------6------6----|---------------------------8---||


  Bb5             Eb5        Bb5      G#5        C#5
|-----------------------15-|---------------------16---|
|-18-------(18)---16-16----|-18-------(18)-16-16------|
|--------------------------|--------------------------|
|--------------------------|--------------------------|
|--------------------------|--------------------------|
|--------------------------|--------------------------|
|
|--------------------------|--------------------------|
|--------------------------|--------------------------|
|--------------------------|--------------------------|
|------------------8--8----|----------------------6---|
|--8---8-8---x--x--6--6----|--8---8-8---6---6-----4---|
|--6---6-6---x--x----------|--6---6-6---4---4---------|
|
|--------------------------|--------------------------|
|--------------------------|--------------------------|
|--------------------------|--------------------------|
|--------------------------|--------------------------|
|--------------------------|--------------------------|
|--------------------------|--------------------------|


  Eb5     C#5      G#/G#5    Bb5             Eb5
|-18--15--16p15---------15-|-----------------------15-|
|---------------18-16------|-18-------(18)---16-16----|
|--------------------------|--------------------------|
|--------------------------|--------------------------|
|--------------------------|--------------------------|
|--------------------------|--------------------------|
|
|--------------------------|--------------------------|
|--------------------------|--------------------------|
|--------------------------|--------------------------|
|--8-------6--6-----6------|------------------8--8----|
|--6-------4--4-----3-6----|--8---8-8---x--x--6--6----|
|---------------------4----|--6---6-6---x--x----------|


  Bb5             G#5   C#5  F#5     G#5
|-----------------------16-|-18--16------------------|
|-18-------(18)---16-16----|---------19-18-16----16--|
|--------------------------|------------------18-----|
|--------------------------|-------------------------|
|--------------------------|-------------------------|
|--------------------------|-------------------------|
|
|--------------------------|-------------------------|
|--------------------------|-------------------------|
|--------------------------|-------------------------|
|------------------------6-|-------------------------|
|--8---8-8---x--x--6--6--4-|--4---4---6--------6-----|
|--6---6-6---x--x--4--4----|--2---2---4--------4-----|


                          F#5     G#5
|--------------------16-|-18--16-----------------------|
|-18--18--(18)-16-16----|---------18pb20r(18)-16----16-|
|-----------------------|------------------------18----|
|-----------------------|------------------------------|
|-----------------------|------------------------------|
|-----------------------|------------------------------|
|
|-----------------------|------------------------------|
|-----------------------|------------------------------|
|-----------------------|------------------------------|
|-----------------------|------------------------------|
|-----------5------6----|--4---4---6--------------6----|
|--6---8----------------|--2---2---4--------------4----|


  N.C.
|----------------------------------------------16--|
|-18-16h18p16s15-16p15----------------------16-----|
|----------------------17p15s13--------------------|
|-------------------------------15-13--------------|
|-------------------------------------15p13--------|
|--------------------------------------------------|
|
|--------------------------------------------------|
|--------------------------------------------------|
|--------------------------------------------------|
|--------------------------------------------------|
|-----------------6--------------5-----------3-----|
|--6-----------------------------------------------|


  F#5            G#5
|-16-18------------------------------------------|
|-------18b20-18-18b20r====(18)-16-18b20r(18)-16-|
|------------------------------------------------|
|------------------------------------------------|
|------------------------------------------------|
|------------------------------------------------|
|
|------------------------------------------------|
|------------------------------------------------|
|------------------------------------------------|
|------------------------------------------------|
|--4-----4--------6----6-x-------x--6------------|
|--2-----2--------4----4-x-------x--4------------|


  N.C.                                              F#5     G#5
|-------------------------------------------------|-18--16-----------------------------|
|-18-16h18p16s15-16p15----16-15S13----18-17-18-18-|---------18pb20r(18)-16-------14-16-|
|----------------------17----------15-------------|------------------------18-17-------|
|-------------------------------------------------|------------------------------------|
|-------------------------------------------------|------------------------------------|
|-------------------------------------------------|------------------------------------|
|
|-------------------------------------------------|------------------------------------|
|-------------------------------------------------|------------------------------------|
|-------------------------------------------------|------------------------------------|
|-------------------------------------------------|------------------------------------|
|-----------------------------5--------6----------|--4-------6-------------------------|
|--6--------------8-------------------------------|--2-------4-------------------------|


  Bb5
|-----------------------------------------|---------------------------------------------------|
|-18--16h18p16-15-16----------------16-15-|---------------------------------------------------|
|--------------------19p17p15h17h19-------|-17--15s13-12----10--------------------------------|
|-----------------------------------------|--------------13----12h13p12b13r(12)p10-12-10-8----|
|-----------------------------------------|------------------------------------------------11-|
|-----------------------------------------|---------------------------------------------------|
|
|-----------------------------------------|---------------------------------------------------|
|-----------------------------------------|---------------------------------------------------|
|-----------------------------------------|---------------------------------------------------|
|-----------------------------------------|---------------------------------------------------|
|--8--------------------------------------|-(8)-----------------------------------------------|
|--6--------------------------------------|-(6)-----------------------------------------------|


|----------------------------------|---------|
|----------------------------------|---------|
|----------------------------------|---------|
|----------------------------------|---------|
|-10tr11--13tr11--15tr13--15s11-13-|-(13)----|
|----------------------------------|---------|
|
|----------------------------------|---------|
|----------------------------------|---------|
|----------------------------------|---------|
|----------------------------------|---------|
|-(8)------------------------------|--(8)----|
|-(6)------------------------------|--(6)----|


|-------------|-----*|
|-------------|-----*|
|-------------|-----*|
|-------------|-----*|
|-(13)--------|-----*|
|-------------|-----*|
|
|-------------|-----*|
|-------------|-----*|
|-------------|-----*|
|-------------|-----*|
|---8---------|-----*|
|---6---------|-----*|
Comments