Steve Vai - Bad Horsie Chords & Tabs

 

Bad Horsie Chords & Tabs

Steve Vai Chords & Tabs

Version: 3 Type: Tab 0 ratings
1 star 2 stars 3 stars 4 stars 5 stars
comments

Bad Horsie Tab

   
www.mikesguitarsite.co.uk

Gtr I (C G C F A D) - 'Steve Vai - dist electric (drop D down 1 whole step)'
Gtr II, III (C G C F A D) - 'Rhythm Fill'

Intro
  Freely approx Q=78        
 4/4
  Gtr I
        \1/          \7
   E.  +S    +Q     +H
|---------------------------|
|-<7>-(<7>)-(<7>)--(<7>)----|
|-<7>-(<7>)-(<7>)--(<7>)----|
|---------------------------|
|---------------------------|
|---------------------------|


 In Time Q=62
                                                      2/4
                               \7____/     \1____/                   /1\
  PM----------------------|
  S S S S S S S S S S S S E T  a    +S     a    +T      +E    +E    +E    +E
|----------------------------------------------------|-------------------------|
|-----------------------------<5>--(<5>)-(<5>)-(<5>)-|-(<5>)-(<5>)-(<5>)-(<5>)-|
|-----------------------------<5>--(<5>)-(<5>)-(<5>)-|-(<5>)-(<5>)-(<5>)-(<5>)-|
|----------------------------------------------------|-------------------------|
|-0-0-x-x-0-0-x-x-0-0-x-x-0--------------------------|-------------------------|
|-0-0-x-x-0-0-x-x-0-0-x-x-0--------------------------|-------------------------|


 4/4
  PM--------------------|
                                        |--3--|  |--3--|
  S S S S S S E S S S S S S a  E    Q   E  E  E  S  S  Q  +Q
|--------------------------------|-22--22----22-22s20-20-(20)---|
|---------------------------3s22-|--------22----22s20-20-(20)---|
|--------------------------------|------------------------------|
|--------------------------------|------------------------------|
|---------0-0-x-0-0-x-x-0--------|------------------------------|
|-0-0-x-x-0-0-x-0-0-x-x-0--------|------------------------------|


               Q=65
   Q   Q  H       W          H    Q   Q
|--------------||----------|--------------|
|-20\----------||----------|--------------|
|-20\----------||----------|--------------|
|--------------||----------|---------12\--|
|-20\----------||----------|---------12\--|
|--------------||----------|---------12\--|


  PM----------------------------------------------|
  S S S S S S E S S S S E E   S S S S S S E S S S S  a  E  +E
|---------------------------|------------------------------------||
|---------------------------|------------------------------------||
|---------------------------|------------------------------------||
|-0-0-x-x-0-0-x-0-0-x-x-0-x-|-0-0-x-x-0-0-x-0-0-x-x-10s12-(12)\--||
|-0-0-x-x-0-0-x-0-0-x-x-0-x-|-0-0-x-x-0-0-x-0-0-x-x-10s12-(12)\--||
|-0-0-x-x-0-0-x-0-0-x-x-0-x-|-0-0-x-x-0-0-x-0-0-x-x-10s12-(12)\--||


                   PM------------|                            ~~~~~~~
  S S S S a E +E   S S S S S S S S   +S  S S S a E E S S S a  S  +E.  +S
|----------------------------------|--------------------------------------|
|----------------------------------|--------------------------------------|
|----------------------------------|--------------------------------------|
|-5s6-5-0-2s3-(3)\-0-2-3-0-2-3-2-0-|-(0)-6s5-0-2s3-0-7s9-0-7s10-(10)-(10)-|
|-5s6-5-0-2s3-(3)\-0-2-3-0-2-3-2-0-|-(0)-6s5-0-2s3-0-7s9-0-7s10-(10)-(10)-|
|-5s6-5-0-2s3-(3)\-0-2-3-0-2-3-2-0-|-(0)-6s5-0-2s3-0-7s9-0-7s10-(10)-(10)-|


                   PM------------|                             ~~
  S S S S a E +E   S S S S S S S S   +S  S S S a E E  S  S  S  S  +E   a  E
|----------------------------------|-----------------------------------------|
|----------------------------------|-----------------14s16s14s17-(17)--------|
|----------------------------------|-----------------14s16s14s17-(17)-17s19\-|
|-5s6-5-0-2s3-(3)\-0-2-3-0-2-3-2-0-|-(0)-6s5-0-2s3-0-14s16s14s17-(17)-17s19\-|
|-5s6-5-0-2s3-(3)\-0-2-3-0-2-3-2-0-|-(0)-6s5-0-2s3-0-------------------------|
|-5s6-5-0-2s3-(3)\-0-2-3-0-2-3-2-0-|-(0)-6s5-0-2s3-0-------------------------|


  PM--------------------------------------|
  S S S S S S E S S S S E E   S S S S S S E  Q  a  E. S
|---------------------------|---------------^5--------1s=|
|---------------------------|---------------^5-----------|
|---------------------------|---------------^5--9s12\----|
|-0-0-x-x-0-0-x-0-0-x-x-0-x-|-0-0-x-x-0-0-x-^5--9s12\----|
|-0-0-x-x-0-0-x-0-0-x-x-0-x-|-0-0-x-x-0-0-x-^3--9s12\----|
|-0-0-x-x-0-0-x-0-0-x-x-0-x-|-0-0-x-x-0-0-x-^3-----------|


   ~~          ~~~PM----|
   E  S  S  S  E. S S S S  S   S  a  S      +S
|-10-10------------------------------------------|
|-------12---------------------------------------|
|----------10---------------------7s12b14==(14)r-|
|-------------12---------------------------------|
|-----------------0-0-x-x------------------------|
|-----------------0-0-x-x-<3>-<3>----------------|


            ~~~~~~~ PM--------|
   S  S  S  S  +Q   S S S S S S  S  S
|-10-----------------------------------|
|-10-----------------------------------|
|----13----10-(10)---------------------|
|-------12-----------------------------|
|-------------------0-0-x-x-0-0-----0--|
|-------------------0-0-x-x-0-0-15\----|


                  ~~~              ~~~~~~~~~
  S    +S  +S  S  Q    S   S   S   S   +S    E  S
|-------------------------------------------------|
|-------------------------------------------------|
|-------------------------------------------------|
|-5b6==(6)r(5)-3-[5]--[3]-[4]-[5]-[3]-([3])-------|
|-------------------------------------------[5]-3-|
|-------------------------------------------------|


                 \1___/
             ~~~          ~~~
   S  S  a   Q   a   +E  +Q.   +S  S
|-------------------------------------|
|-------------------------------------|
|----------------2---(2)-(2)---(2)----|
|-[3]------------------------------x/-|
|-----5-[3]h[5]--------------------x/-|
|----------------------------------x/-|


                     ~~~PM------|
   E     S  S  S     E. S S S S S  E      +S
|-------10----------------------------------------|
|-13b15----12---------------------10b12==(12)b13==|
|-------------10b11-------------------------------|
|-------------------12----------------------------|
|-------------------------------------------------|
|-----------------------0-0-x-x-0-----------------|


                    ~~~~~~~~~~  PM-------|     PM
   +S   +S  S  a    S    +Q     S   S  S S  E  S S
|---------------------------------------------------|
|-(13)r(10)-----------------------------------------|
|-----------7-[7]s[10]-([10])-----------------------|
|---------------------------------------------------|
|---------------------------------------------------|
|------------------------------[0]-[0]-x-x-12\-0-7/-|


               ~~                   ~~
   E     S  S  Q   S  S  S  S  +S   E  S
|-20----------20--17-18-19-17-(17)-------|
|-20b22-20-18-20--18-19-20-18-(18)-------|
|----------------------------------19-17-|
|----------------------------------------|
|----------------------------------------|
|----------------------------------------|


               ~~
   S  S  S. T  E  +S.  T   Q   E   E
|-17------------------(0)S24--22-(22)\-||
|-18------------------------------(0)--||
|----19-19p17-19-(19)------------------||
|--------------------------------------||
|--------------------------------------||
|--------------------------------------||


                      /1\
                                     ~~
  S E S  E.     +S   +E   +S   S  S  E  +S
|--------------------------------------------|
|-------12b13==(13)-(13)r(12)-10-12-13-(13)\-|
|--------------------------------------------|
|-3-3p0--------------------------------------|
|-3-3p0--------------------------------------|
|-3-3p0--------------------------------------|


                                 /1\         \0.5/
  S S +S.   T     +E       +E   +S   +S   S  S      +S   E  S
|-------------------------------------------10-----(10)-------|
|----------12b13r(12)b13==(13)-(13)r(12)-10-------------12s13-|
|-------------------------------------------------------------|
|-3-3-(x)/----------------------------------------------------|
|-3-3-(x)/----------------------------------------------------|
|-3-3-(x)/----------------------------------------------------|


                                                   ~~
  S S S   S     +E       +E    S  S     +S   S  S  E  +S
|-----------------------------10---------------------------|
|-----------------------------10-12b13r(12)p10-12-13-(13)\-|
|--------12b13r(12)b13==(13)r------------------------------|
|-3-3-x/---------------------------------------------------|
|-3-3-x/---------------------------------------------------|
|-3-3-x/---------------------------------------------------|


          ~~~~~~~~~~~~~~~~~~~~~~
  S E  S  E  S  S  +S   S  E  E  E
|-----17-17-17-17-(17)-17-17-17-----||
|-6---18-18-18-18-(18)-18-18-18-----||
|---7-------------------------------||
|-------------------------------17\-||
|-------------------------------17\-||
|-------------------------------17\-||


                   PM------------|                            ~~~~~~~
  S S S S a E +E   S S S S S S S S   +S  S S S a E E S S S a  S  +S   E.
|----------------------------------|-------------------------------------|
|----------------------------------|---------------------------------17\-|
|----------------------------------|---------------------------------17\-|
|-5s6-5-0-2s3-(3)\-0-2-3-0-2-3-2-0-|-(0)-6s5-0-2s3-0-7s9-0-7s10-(10)-17\-|
|-5s6-5-0-2s3-(3)\-0-2-3-0-2-3-2-0-|-(0)-6s5-0-2s3-0-7s9-0-7s10-(10)-----|
|-5s6-5-0-2s3-(3)\-0-2-3-0-2-3-2-0-|-(0)-6s5-0-2s3-0-7s9-0-7s10-(10)-----|


              PM------------|                                 ~~~~~~~
  S S S S E.S S S S S S S S S   +S  S S S a E S.  T  S  S  S  S  +E   +E
|-----------------------------|--------------------------------------------|
|-----------------------------|------------------17s19s17s19s17-(17)-(17)\-|
|-----------------------------|------------------17s19s17s19s17-(17)-(17)\-|
|-5s6-5-0-2s3-0-2-3-0-2-3-2-0-|-(0)-6s5-0-2s3-0--17s19s17s19s17-(17)-(17)\-|
|-5s6-5-0-2s3-0-2-3-0-2-3-2-0-|-(0)-6s5-0-2s3-0----------------------------|
|-5s6-5-0-2s3-0-2-3-0-2-3-2-0-|-(0)-6s5-0-2s3-0----------------------------|


                                             \1.5___/
  PM|         PM|         PM|         PM
  S S  S   S  S S  S   S  S S  S   S  E  S.  a     +T
|------------------------------------------------------|
|------------------------------------------------------|
|---------------------------------------[0]-(0)----(0)-|
|-0-0-<3>-<3>-0-0---------0-0-<3>-<3>-0----------------|
|-0-0-<3>-<3>-0-0-<3>-<3>-0-0-<3>-<3>-0----------------|
|-0-0---------0-0-<3>-<3>-0-0---------0----------------|


           /2.5\
  +E  +E  +E     +E   Q  A  Q
|--------------------^5--7s10\--|
|--------------------^5--7s10\--|
|-(0)-(0)-(0)----(0)-^5---------|
|--------------------^5---------|
|--------------------^3--7s10\--|
|--------------------^3---------|


   ~~~~~          ~~~ PM-----------|
   E     S  S  S  E.  S   S  S S S S  E
|-------10---------------------------13b15==|
|-13b15----13------------------------13b15==|
|-------------10----------------------------|
|----------------12-------------------------|
|----------------------------x-x------------|
|--------------------[0]-[0]-x-x-0-0--------|


              ~~~~~~~~~~~~ PM------|
   S  +S   S  S      +Q    S  S  S S S  E  S
|-15r(13)-10--8------(8)---------------------|
|-15r(13)----11b13==(13)r--------------------|
|--------------------------------------------|
|------------------------------------xS12\---|
|--------------------------------x-x---------|
|--------------------------0-[0]-x-x-------3-|


                     ~          ~~~~~~
  S    +S  +S  S S a E S  S S S S +E  S S
|-----------------------------------------|
|-----------------------------------------|
|----------------0--------0---0-----------|
|-5b6==(6)r(5)-3---3s5-5\---5---3-(3)-----|
|-------------------------------------5-3-|
|-----------------------------------------|


               ~~~~~                  ~~~~
                  |3-|   |--3--|
   S   S   a   E  E  S   S  S  S     +Q.   +S  S
|-------------------------------------------------|
|-------------------------------------------------|
|-----------------------------[2]b7==(7)r==(2)----|
|-[3]------------------------------------------x/-|
|-----[5]-[3]h[5]-5-[5]-[5]-5------------------x/-|
|----------------------------------------------x/-|


   \1/  \1/         /1\   /1\
   E    E    S  S  +S    +S   S S  S   T   T   S    E        +S
|-15---17---13--------------------------------------------------------|
|--------------15-(15)--(15)----------------------[10]b12==([12])b13==|
|---------------------------------------------------------------------|
|---------------------------------------------------------------------|
|---------------------------------------------------------------------|
|-----------------------------0-0-<4>-<4>-<4>-[0]---------------------|


                     ~~~~~~~ PM|    PM|
    +S     +S   S a  S  +Q   S S  S T T  S  S  S   S
|--------------------------------13-----13-13---------|
|-([13])r([10])------------------13-----13-13---------|
|---------------7-7s10-(10)---------------------------|
|---------------------------------------------12/-----|
|---------------------------------------------12/-----|
|----------------------------0-0----0-0-----------[0]-|


   E     E     S  S  +S   S   S  S  S  S  +S   S  S  S
|-20b22-20b22-20-20-(20)\----17-18-19-17-(17)-17-14----|
|-------------------------5/-18-19-20-18-(18)-18-15----|
|---------------------------------------------------14-|
|------------------------------------------------------|
|------------------------------------------------------|
|------------------------------------------------------|


                  \0.5/
                  ~~~~~~
   a  S  S  S  S  E.    S E S S S S E
|---------------------------------------|
|----------------17---------------------|
|-17s19s17-17-17-17---------------------|
|-17s19s17-17-17-17-----xSxSxSxsxSxSx\--|
|-15s17s15-15-15--------xSxSxSxsxSxSx\--|
|-----------------------xSxSxSxsxSxSx\--|


                      /1\
                                     ~~~
  S E S  E      +E   +E   +S   S  S  E.
|---------------------------------------|
|-------12b13==(13)-(13)r(12)-10-12-13--|
|---------------------------------------|
|-3-3p0---------------------------------|
|-3-3p0---------------------------------|
|-3-3p0---------------------------------|


                 /1\   /1\ /1\   /1\   /1\ /1\           /1\     /1\
                                                         ~~~~    ~~~~
  S S  T  T  S  +S    +S   S    +S    +S   S    T  T  S  S    S  S    +S
|-------------------------------------------------------10-----------------|
|-----------12-(12)--(12)h13---(13)--(13)p12---10h13---------12-12---(12)\-|
|----------------------------------------------------13--------------------|
|-3-3----------------------------------------------------------------------|
|-3-3----------------------------------------------------------------------|
|-3-3-[3]p0----------------------------------------------------------------|


  S S  S    S  E.     +S    S  S  S  S  S  E  S
|--------------------------10-10-10-10-10-10----|
|--------------------------10-10-13-10-12-13-10-|
|----------19s12b14==(14)r----------------------|
|-3-3-------------------------------------------|
|-3-3-------------------------------------------|
|-3-3-[3]/--------------------------------------|


   \1/
              |----3----|
   S    T  T  T      T  T  S  S  T  T  S  T  T  S  T  T  E  S  T   T  E
|------15-15-15-----15-15-15-15-15-15-15----15----15-15----15-----15-----||
|-15---------15b17==17-17-17-17-17-17-17-17----17-------17----17r----12\-||
|--------------------------------------------------------------------12\-||
|--------------------------------------------------------------------12\-||
|------------------------------------------------------------------------||
|------------------------------------------------------------------------||


               PM------------|                            ~~~~~~~
  S S S S a Q  S S S S S S S S   +S  S S S a E E S S S a  S  +E.  +S
|------------------------------|---------------------------------------|
|------------------------------|---------------------------------------|
|------------------------------|---------------------------------------|
|-5s6-5-0-2s3--0-2-3-0-2-3-2-0-|-(0)-6s5-0-2s3-0-7s9-0-7s10-(10)-(10)\-|
|-5s6-5-0-2s3--0-2-3-0-2-3-2-0-|-(0)-6s5-0-2s3-0-7s9-0-7s10-(10)-(10)\-|
|-5s6-5-0-2s3--0-2-3-0-2-3-2-0-|-(0)-6s5-0-2s3-0-7s9-0-7s10-(10)-(10)\-|


              PM------------|
  S S S S E E S S S S S S S S   +S  S S S a E E S S S S  S  E.
|-----------------------------|-----------------------------8\--|
|-----------------------------|-----------------7s8s7s5-(5)-8\--|
|-----------------------------|-----------------7s8s7s5-(5)-----|
|-5s6-5-0-2s3-0-2-3-0-2-3-2-0-|-(0)-6s5-0-2s3-0-7s8s7s5--5------|
|-5s6-5-0-2s3-0-2-3-0-2-3-2-0-|-(0)-6s5-0-2s3-0-----------------|
|-5s6-5-0-2s3-0-2-3-0-2-3-2-0-|-(0)-6s5-0-2s3-0-----------------|


              PM------------|                                 ~~
  S S S S E E S S S S S S S S   +S  S S S a E E  S  E.  a  S  E  +S
|-----------------------------|---------------------------------------|
|-----------------------------|------------------------10s12s10-(10)--|
|-----------------------------|-----------------12s13--10s12s10-(10)--|
|-5s6-5-0-2s3-0-2-3-0-2-3-2-0-|-(0)-6s5-0-2s3-0-12s13--10s12s10-(10)--|
|-5s6-5-0-2s3-0-2-3-0-2-3-2-0-|-(0)-6s5-0-2s3-0-----------------------|
|-5s6-5-0-2s3-0-2-3-0-2-3-2-0-|-(0)-6s5-0-2s3-0-----------------------|


                PM------------|
  S S S S a E.S S S S S S S S S   +S  S S S a E E  H
|-------------------------------|------------------------|
|-------------------------------|-----------------^7/----|
|-------------------------------|-----------------^7/----|
|-5s6-5-0-2s3s4-0-2-3-0-2-3-2-0-|-(0)-6s5-0-2s3-0-^7/----|
|-5s6-5-0-2s3s4-0-2-3-0-2-3-2-0-|-(0)-6s5-0-2s3-0--------|
|-5s6-5-0-2s3s4-0-2-3-0-2-3-2-0-|-(0)-6s5-0-2s3-0--------|


                                             \3.5/ \5
                            PM------------|        ~~
  W          H    Q   Q     S S  S   S  S S  E     Q.   E
|----------|--------------|--------------------------------|
|----------|---------23\--|------------------------2-------|
|----------|---------23\--|--------------------------------|
|----------|--------------|-----------------<2>---------x/-|
|----------|--------------|-0-0-------------------------x/-|
|----------|--------------|-0-0-<4>-<4>-0-0-------------x/-|

[ Tab from: http://www.guitartabs.cc/tabs/s/steve_vai/bad_horsie_tab_ver_3.html ]
 2/4                 4/4
                                   \0.5/
  PM--------|
  S S S S S S  S  S    H    S S E +E.    S
|-------------------|----------------------|
|-------------------|-^5-----------------5-|
|-------------------|-^5----5-5----------5-|
|-------------------|-^5--------5-(5)------|
|-0-0-x-x-0-0-12\-0-|-^3-------------------|
|-0-0-x-x-0-0-------|-^3-------------------|


         \0.5/  \0.5/         \0.5/ \0.5/
  S S E +S     +E     S S S S S     E     E
|-----------------------5--------------------||
|-5---5-(5)----(5)----5---5------------------||
|---5-----------------5-----5-------5--------||
|---------------------------5-------5--------||
|-----------------------------3--------------||
|-----------------------------------------3\-||


  Gtr II
              \3.5                                  \3.5
  PM|         ~~~~~        T  T  T  T   PM|         ~~~~~        T  T  T  T
  S S E E E   Q      +S    a  s  S  S   S S E E E   Q      +S    a  s  S  S
|-------------------------------15-12-|-------------------------------15-12-|
|-------------------------12----------|-------------------------12----------|
|------------<2>----(<2>)----12-------|------------<2>----(<2>)----12-------|
|----------------------------------h7-|----------------------------------h7-|
|-0-0---xSx/--------------------------|-0-0---xSx/--------------------------|
|-0-0---------------------------------|-0-0---------------------------------|
|-Fill 1                   end Fill 1-|

                 \3.5                                        \3.5
  PM|            ~~~~~           T  T  T  T   PM|            ~~~~~           T  T  T  T
  S S  E   E E   Q         +S    a  s  S  S   S S  E   E E   Q         +S    a  s  S  S
|-------------------------------------15-12-|-------------------------------------15-12----||
|-------------------------------12----------|-------------------------------12-------------||
|---------------<2>-------(<2>)----12-------|---------------<2>-------(<2>)----12----------||
|----------------------------------------h7-|----------------------------------------h7----||
|-0-0------xSx/-----------------------------|-0-0------xSx/--------------------------------||
|-0-0---------------------------------------|-0-0------------------------------------------||
|
|Gtr III
| PM|                                         PM|
| S S  S S E E   S    S E   E          S  S   S S  S S E E   S    S E   E          S  S
|-----10------------------------------------|-----10---------------------------------------||
|-----10------------------------------------|-----10---------------------------------------||
|---------------------4s7s==5----------5----|---------------------4s7s==5----------5-------||
|---------------------4s7s==5----------5----|---------------------4s7s==5----------5-------||
|-0-0--------x---x--------------------------|-0-0--------x---x-----------------------------||
|-0-0--------x---x--------------------------|-0-0--------x---x-----------------------------||
|-Fill 2                         end Fill 2-|

 Guitar Solo
w/Fill 1 & x8 (both)
  Gtr I
                      ~~~~
   S      +E.        +E.    S      +S     S  S  S   E            +E
|-12-----(12)-------(12)---12-----(12)---12--------12-----------(12)----|
|-12b13==(13)r------(12)---12b13==(13)---12r12p10--12b13========(13)----|
|-----------------------------------------------------------------------|
|-----------------------------------------------------------------------|
|-----------------------------------------------------------------------|
|-----------------------------------------------------------------------|



                         \0.5/ \2      \1/           \1/   \3.5
    ~~~~
   +E     S  +T   T  S  +S     S  +S   S     S  S S  a    +E           +E
|-(12)---12--------------------------------------------------------------------|
|-(13)---12r(12)p10------------------------------------------------------------|
|-------------------12-(12)----0--(0)-10------------<2>--(<2>)--------(<2>)----|
|-------------------------------------10---------------------------------------|
|-------------------------------------------12-10------------------------------|
|-------------------------------------------------0----------------------------|



                                                            ~~~~~
  S S  E        +E    S   S  T      +T   +T   T  S  S      +Q
|-----15b17====(17)r-15--13-15b16==(16)r(15)p13-----------------------------|
|-0---------------------------------------------15-15b18==(18)--------------|
|-0-------------------------------------------------------------------------|
|-0-0-----------------------------------------------------------------------|
|---0-----------------------------------------------------------------------|
|---------------------------------------------------------------------------|



    |---3----|
   +T   +T   T  S  S  T  T  S  T     +T   T   T  T T  T   T T T S  S      E          S   S
|--------------------------10--------------------------------------------------------------|
|-(18)r(15)p13----15-13s10-10----------------------------------------------------------/13-|
|--------------14-------------12b13r(12)p10h=12p10s5---------------------------------------|
|-----------------------------------------------------7p==5-------[3]b4--------------------|
|-----------------------------------------------------------6s5-3--------[5]---------5-----|
|------------------------------------------------------------------------------------------|



                                                                                                           ~~~~~
   |--3--|                             |----3-----|               |---3---|        |---------6---------|     
   T  T  T  T  T  T     T  T  T  T  T  T     +T   T  T   T  T  T  T    T  T  T  T  T     +T   T  T  T  T   E.  a  S
|-10h14p10-------------10-------10----------------------------------------------------------------------------------|
|----------13p10-13b15----13p10----10----------------------------10h==13p10-------12b13r(12)p10---------------10s13-|
|-------------------------------------12b13r(12)p10-----10-12-13------------12p10---------------12p10-----10--------|
|---------------------------------------------------12------------------------------------------------12------------|
|-------------------------------------------------------------------------------------------------------------------|
|-------------------------------------------------------------------------------------------------------------------|

                                                                                                                
   |--------------12----------------|  |------6-------|  |--3--|        |--3---|                             |---3---|
   T  T  T  T  T  T  T  T  T  T  T  T  T  T  T  T  T  T  T  T  T  a  S  X   X  X  X  X  X  X  X  X  X     X  T  T    T
|-10h14p10----------10h13p10----10--------------------------------------------------------15-20p15--------------------|
|----------13p10h13----------13----13-10h13p10----10-------------------15h=18p15-15h18-18----------18----18p15--------|
|----------------------------------------------13----13-10h13p10-13s17-----------------------------------------19p==17|
|---------------------------------------------------------------------------------------------------------------------|
|---------------------------------------------------------------------------------------------------------------------|
|---------------------------------------------------------------------------------------------------------------------|


   \1.5
                                                                                                ~~~~~~
                                                                                                           |----3-----|
   E..     +E    S  +E.  +T   T  T  T  T  T  T   T     +T   T  T     T      +T    T  T     +T   T   T   T   E.     S
|-20b22===(22)r--------------17----20-------17-----------------------------------17--------------------10-------------|
|-------------------------------18----17s15-----17b18r(17)p15-----------------------12b13r(12)p10------10--15b17------|
|-------------------------------------------------------------17----16b17==(17)r------------------[12]------------12\-|
|---------------[0]-(0)--(0)------------------------------------------------------------------------------------------|
|---------------------------------------------------------------------------------------------------------------------|
|---------------------------------------------------------------------------------------------------------------------|


     \1      \1      \1/    \1/    \1
                                                 ~~~~~            ~~~~~
  |--------6---------|   |-------6-------|
  S  S    S  S  S    S   S  S   S  S  S  S      +E      T T T T   E.           +S
|-----------------------------------------------------------------------------------|
|-8-[8]---8--8--8---[8]--8-[8]--8-[8]-8-[8]pb10r(8)-----8p6-------------------------|
|-----------------------------------------------------------7p5---7------------(7)\-|
|-----------------------------------------------------------------------------------|
|-----------------------------------------------------------------------------------|
|-----------------------------------------------------------------------------------|


         T     T     T     T     T     T     T     T     T     T     T     T
               |--3--|  |------6-------|  |--------------12----------------|
   X  X  X  X  T  T  T  T  T  T  T  T  T  T  T  T  T  T  T  T  T  T  T  T  T
|-10h13-15p13-15p13-15p13-15p13-15p13-15p13-15p13-15p13-15p13-15p13-15p13-15p=
|-----------------------------------------------------------------------------
|-----------------------------------------------------------------------------
|-----------------------------------------------------------------------------
|-----------------------------------------------------------------------------
|-----------------------------------------------------------------------------


      T     T     T     T     T           T     T        T     T        T             T
               |--3--|  |--------6--------|              |--3--|
   X  X  X  X  T  T  T  T  T  T  T  T  X  X  X  X  X  X  T  T  T  X  X  X  X  X X  X  X
 -13-15p13-15p13-15p13-15p13-15p13p10h13-15p13-15p13p10-15p13-15p13p10-15p13p10s9h12-15p=|
 ----------------------------------------------------------------------------------------|
 ----------------------------------------------------------------------------------------|
 ----------------------------------------------------------------------------------------|
 ----------------------------------------------------------------------------------------|
 ----------------------------------------------------------------------------------------|


      T       T       T       T         T       T         T     T           T
              |-3--|  |-3--|  |------6-------|  |-----6------|
   X  X  X X  T  T T  T  T T  X  X   X  X  X X  X  X X  X X  X  X  X X   X  X  X X  X
|-12-15p12p9-15p12p9---------------h12-15p12p9------------9h12-17p12p9----------------
|--------------------15p12p9-------------------15p10p9h10--------------h12-17p12p9h10-
|----------------------------14p11----------------------------------------------------
|-------------------------------------------------------------------------------------
|-------------------------------------------------------------------------------------
|-------------------------------------------------------------------------------------


        T           T                               T             T               T            T
                       |3-| |------6-------|             |--3--|               |-------6-------|
  X  X  X  X X   X  X  X  X X  X  X  X  X  X  X  X  X  X T  T  T  X  X  X  X   X  X  X  X   X  X  X  X T
 -9h12-17p12p9-------------------12s13---------------------------------------h12-17p12p10----------------|
 --------------h12-17p12p10p9h10h12s13p12p10---------------------17p12p10h13--------------h12-17p12p10s8-|
 --------------------------------------------13p11-17p11p9h11h13-----------------------------------------|
 --------------------------------------------------------------------------------------------------------|
 --------------------------------------------------------------------------------------------------------|
 --------------------------------------------------------------------------------------------------------|


        T       T       T     T           T      T    T      T    T       T
                      |-3--|  |-3--|        |-3--|                     |--3--|
  X  X  X  X X  X X X T T  T  X  X X   X  X T T  T X  X X X  X X  X  X T  T  T
|-8h11-17p11p8----------8h11-17p11p8-----------------------------19p10p8--------
|--------------17p9p8h9--------------h11-17p9p8-18p9-18p9p8--------------19p10p=
|-----------------------------------------------------------19p9----------------
|-------------------------------------------------------------------------------
|-------------------------------------------------------------------------------
|-------------------------------------------------------------------------------


     T    T      T      T    T      T           T     T        T
            |-3--|           |-3-|                 |--3--|  |--3--|
  X  X X  X T T  T X X  X X  T T T  X X X X  X  X  X  X  X  X  X  X X X  X X X X
 --------19p9p8-------------19p9p7--------------------------------------10p5h7p5--|
 -8-------------19p9p8-------------19p8p7s8h12-15p12-15p12p10-19p10s7h8h10--------|
 ---19p9---------------16p9-------------------------------------------------------|
 ---------------------------------------------------------------------------------|
 ---------------------------------------------------------------------------------|
 ---------------------------------------------------------------------------------|


   T         T      T    T      T    T      T      T      T      T      T
   |-----6-----| |-3--|  |-3-|                              |-----6-----|
   X X X  X  X X T  T T  T T T  X X  X X X  X X X  X X X  X T T  T T T  T
|-17p7p5----------------------------17p7p5---------------------------------
|--------h7-17p7p5------17p7p5-------------17p7p5-15p5h7-17p7p5------------
|------------------17p7--------17p7-----------------------------17p7p5-17p=
|--------------------------------------------------------------------------
|--------------------------------------------------------------------------
|--------------------------------------------------------------------------


          T      T    T      T      T      T      T
  |-----6-----|                     |----6-----|  |-3-|
  T T  T  T T T  X X  X X X  X X X  T T T  T T T  T T T T T
 --------------------17p7p5---------------------------------|
 --------17p7p5-------------17p7p5--------------------------|
 -7p6-----------17p7---------------17p7p5-------------------|
 -----h7----------------------------------17p7p5------------|
 ------------------------------------------------17p7p5s3p0-|
 -----------------------------------------------------------|


       ~~~  ~~~~~~~                       PM------------|
   Q  +E  E Q  +S  E.    S S S S a E +E   S S S S S S S S
|---------------------||----------------------------------|
|-^5--(5)---5--(5)-5\-||----------------------------------|
|-^5--(5)---5--(5)-5\-||----------------------------------|
|-^5--(5)---5--(5)-5\-||-5s6-5-0-2s3-(3)\-0-2-3-0-2-3-2-0-|
|-^3--(3)---3--(3)----||-5s6-5-0-2s3-(3)\-0-2-3-0-2-3-2-0-|
|-^3--(3)-3-----------||-5s6-5-0-2s3-(3)\-0-2-3-0-2-3-2-0-|


                           ~~~~~~~                         PM------------|
  +S  S S S a E E S S S a  S  +E.  +S     S S S S a E +E   S S S S S S S S
|---------------------------------------|----------------------------------|
|---------------------------------------|----------------------------------|
|---------------------------------------|----------------------------------|
|-(0)-6s5-0-2s3-0-7s9-0-7s10-(10)-(10)\-|-5s6-5-0-2s3-(3)\-0-2-3-0-2-3-2-0-|
|-(0)-6s5-0-2s3-0-7s9-0-7s10-(10)-(10)\-|-5s6-5-0-2s3-(3)\-0-2-3-0-2-3-2-0-|
|-(0)-6s5-0-2s3-0-7s9-0-7s10-(10)-(10)\-|-5s6-5-0-2s3-(3)\-0-2-3-0-2-3-2-0-|


                                                   PM------------|
  +S  S S S a E E S S S S +S    E.   S S S S a E E S S S S S S S S
|----------------------------------|-------------------------------|
|-----------------7s8s7s5-(5)-/17\-|-------------------------------|
|-----------------7s8s7s5-(5)-/17\-|-------------------------------|
|-(0)-6s5-0-2s3-0-7s8s7s5-(5)-/17\-|-5s6-5-0-2s3s4-0-2-3-0-2-3-2-0-|
|-(0)-6s5-0-2s3-0------------------|-5s6-5-0-2s3s4-0-2-3-0-2-3-2-0-|
|-(0)-6s5-0-2s3-0------------------|-5s6-5-0-2s3s4-0-2-3-0-2-3-2-0-|


                      |-----3-----|     |--3--|
  +S  S S S A E E  A  E  A  E  A  E  A  E  A  Q
|-----------------18s19-------------20s21-------|
|-----------------------19s20-------------23s24-|
|-----------------------------19s20-------------|
|-(0)-6s5-0-2s3-0-------------------------------|
|-(0)-6s5-0-2s3-0-------------------------------|
|-(0)-6s5-0-2s3-0-------------------------------|


                         PM------------|
   S  S  S S a  E.  +S   S S S S S S S S
|----------------------------------------|
|-12s13-12-7-7s12--(12)\-----------------|
|-12s13-12-7-7s12--(12)\-----------------|
|-12s13-12-7-7s12--(12)\-0-2-3-0-2-3-2-0-|
|------------------------0-2-3-0-2-3-2-0-|
|------------------------0-2-3-0-2-3-2-0-|


                              ~~~~~~~~~
  +S  S S S a E E  S  S S  a  S  +Q
|-------------------------------------|
|-----------------14s16---16s17-(17)--|
|-----------------14s16---16s17-(17)--|
|-(0)-6s5-0-2s3-0-14s16---16s17-(17)--|
|-(0)-6s5-0-2s3-0-------0-------------|
|-(0)-6s5-0-2s3-0-------0-------------|


 ~~~~~~~~~~~~~    ~~~~~~~~~~~~~~~~~~~~
   E  E  E  E  a  S  S  S  S  S  S  E   S S S S S S S S S S S S E  a  S  S
|-------------17s20-20-20-20-20-20-20-|-------------------------------------|
|-17-17-17-17-17s20-20-20-20-20-20-20-|---------------------------17s19s17s=|
|-17-17-17-17-------------------------|---------------------------17s19s17s=|
|-17-17-17-17-------------------------|-0-0-x-x-0-0-x-0-0-0-x-x-0-17s19s17s=|
|-------------------------------------|-0-0-x-x-0-0-x-0-0-0-x-x-0-----------|
|-------------------------------------|-0-0-x-x-0-0-x-0-0-0-x-x-0-----------|


                                             \2
                            PM--------|      ~~~     PM------|
   Q.    +E   S S S S E E   S S S S S S  E   Q.  E   S S S S E E S E. E S S
|-------------------------|------------------------|------------------------*|
|-19----(19)\-------------|-----------------<2>----|------------------------*|
|-19----(19)\-------------|------------------------|------------------------*|
|-19----(19)\-0-0-x-x-0---|-0-0-x-x-0-0-<2>------x-|-0-0-x-x-0---0------0-0-*|
|-------------0-0-x-x-0---|-0-0-x-x-0-0----------x-|-0-0-x-x-0---0------0-0-*|
|-------------0-0-x-x-0---|-0-0-x-x-0-0----------x-|-0-0-x-x-0---0------0-0-*|
Comments