Steve Vai - Answers Chords & Tabs

 

Answers Chords & Tabs

Steve Vai Chords & Tabs

Version: 2 Type: Tab 0 ratings
1 star 2 stars 3 stars 4 stars 5 stars
comments

Answers Tab

   
#----------------------------------PLEASE NOTE---------------------------------#
#This file is the author's own work and represents their interpretation of the #
#song. You may only use this file for private study, scholarship, or research. #
#------------------------------------------------------------------------------#

ANSWERS
As recorded by Steve Vai



Transcribed by Doetje2

 

 

Gtr I (E A D G B E) - 'Untitled'
Gtr II (E A D G B E) - 'Untitled'
Gtr III (E A D G B E) - 'Untitled'


 Intro
  Q=214
 4/4
  Gtr I
  E E E E E E E E   E E E E E E E E   E E E E E E E E   E E E E E E E E
|-5-----5-5-----5-|---7---9s7-7-7---|---5---5---7---9s|=7-7-7-----------|
|-5-----5-5-----5-|---7---9s7-7-7---|---5---5---7---9s|=7-7-7-------x---|
|---x-------x-----|-----------------|-----------------|-------------x-x-|
|---x-x-----x-x---|-x---x-----------|-----x---x---7---|-------x-x-x---x-|
|-5-x-x-5-5-x-x-5-|-x-7-x-9s7-7-7---|---5-x-5-x-7-7-9s|=7-7-7-x-x-x-----|
|-----------------|---------------0-|-0---------------|-----------------|


  E E E E E E E E   E E E E E E E E   E E E E E E E E   E E E E E E E E
|-5-----5-5-----5-|---7---9s7-7-7---|---5---5---7---9s|=7-7-7------------|
|-5-----5-5-----5-|---7---9s7-7-7---|---5---5---7---9s|=7-7-7-------x----|
|---x-------x-----|-----------------|-----------------|-------------x-x--|
|---x-x-----x-x---|-x---x-----------|-----x---x---7---|-------x-x-x---x--|
|-5-x-x-5-5-x-x-5-|-x-7-x-9s7-7-7---|---5-x-5-x-7-7-9s|=7-7-7-x-x-x------|
|-----------------|---------------0-|-0---------------|------------------|


  E E E E E E E E   E E E E E E E E   E E E E E E E E   E E E E E E E E
|-5-----5-5-----5-|---7---9s7-7-----|---5-------7---9s|=7-7-7------------|
|-5-----5-5-----5-|---7---9s7-7-7---|---5---5---7---9s|=7-7-7-------x----|
|-----------------|-----------------|-----------------|-------------x-x--|
|---x-x-----x-x---|-x---x-----------|-----x---x---x---|-------x-x-x---x--|
|-5-5-x-5-5-x-x-5-|-x-7-x-9s7-7-7---|---5-x-5-x-9-x-9s|=7-5-5-x-x-x------|
|-----------------|---------------0-|-0---------------|------------------|


  E E E E E E E E   E E E E E E E E   E E E E E E E E   E E E E E E E E
|-5-----5-5-----5-|-------9s7-7-----|---5-------7---9s|=7-7-7-------7----||
|-5-----5-5-----5-|---7---9s7-7-7---|---5---5---7---9s|=7-7-7-------7----||
|---x-------------|-----------------|-----------------|------------------||
|---x-x-----x-x---|-x---x-----------|-----x---x---x---|-------x-x-x------||
|-5-x-x-5-5-x-x-5-|-x-7-x-9s7-7-7---|---5-x-5-x-7-x-9s|=7-7-7-x-x-x-7----||
|-----------------|---------------0-|-0---------------|------------------||


  Gtr I
  E E E E  E   E E E   E E E E E E E E   E E E E E E E E   E E E E E E E E
|--------------------|-----------------|-----------------|------------------|
|--------------------|-----------------|-----------------|------------------|
|--------------------|-----------------|-----------------|------------------|
|-3---5--------3---5-|---7---5---3-5---|-3---5---3-5---3-|---5---5---3-5----|
|-3---5--------3---5-|---7---5---3-5---|-3---5---3-5---3-|---5---5---3-5----|
|-1---3--------1---3-|---5---3---1-3---|-1---3---1-3---1-|---3---3---1-3----|
|
| Gtr III
|          ~~~~
| Q   Q   +H           W                 W                 W
|--------------------|-----------------|-----------------|------------------|
|--------------------|-----------------|-----------------|------------------|
|--------------------|-----------------|-----------------|------------------|
|-3---5---(5)\-------|-----------------|-----------------|------------------|
|-3---5---(5)\-------|-----------------|-----------------|------------------|
|-1---3---(3)\-------|-----------------|-----------------|------------------|


   E E E E  E   E E E   E E E E E E E E   E E E E E E E E   E E E E E E E E
|---------------------|-----------------|-----------------|-----------------||
|---------------------|-----------------|-----------------|-----------------||
|---------------------|-----------------|-----------------|-----------------||
|--3---5--------3---5-|---7---5---3-5---|-3---5---3-5---3-|---5---5---3-5---||
|--3---5--------3---5-|---7---5---3-5---|-3---5---3-5---3-|---5---5---3-5---||
|--1---3--------1---3-|---5---3---1-3---|-1---3---1-3---1-|---3---3---1-3---||
|
|           ~~~~
|  Q   Q   +H           W                 W                 W
|---------------------|-----------------|-----------------|-----------------||
|-10---8---(8)\-------|-----------------|-----------------|-----------------||
|--5---7---(7)\-------|-----------------|-----------------|-----------------||
|--3---5---(5)\-------|-----------------|-----------------|-----------------||
|---------------------|-----------------|-----------------|-----------------||
|---------------------|-----------------|-----------------|-----------------||


   W          +W           +W           +W
|-!0--------|-(0)--------|-(0)--------|-(0)----|
|-!0--------|-(0)--------|-(0)--------|-(0)----|
|-!1--------|-(1)--------|-(1)--------|-(1)----|
|-!4--------|-(4)--------|-(4)--------|-(4)----|
|-!2--------|-(2)--------|-(2)--------|-(2)----|
|-!0--------|-(0)--------|-(0)--------|-(0)----|


   W          +W           +W           +Q   Q  H
|-!0--------|-(0)--------|-(0)--------|-(0)----------||
|-!0--------|-(0)--------|-(0)--------|-(0)----------||
|-!1--------|-(1)--------|-(1)--------|-(1)----------||
|-!4--------|-(4)--------|-(4)--------|-(4)----------||
|-!2--------|-(2)--------|-(2)--------|-(2)----------||
|-!0--------|-(0)--------|-(0)--------|-(0)----------||


  E E E E E E E E   E E E E E E E E   E E E E E E E E   E E E E E E E E
|-----------------|-----------------|-----------------|------------------|
|-----------------|-----------------|-----------------|------------------|
|-5-x-5-x-x-5-x-7-|-x-9-x-7-x-5-7-x-|-5-x-5-x-5-7-x-9-|-x-7-x-7-x-5-7----|
|-5-x-5-x-x-5-x-7-|-x-9-x-7-x-5-7-x-|-5-x-5-x-5-7-x-9-|-x-7-x-7-x-5-7----|
|-3---3-----3---5-|---7---5---3-5---|-3---3---3-5---7-|---5---5---3-5----|
|-----------------|-----------------|-----------------|------------------|


  E E E E E E E E   E E E E E E E E   E E E E E E E E   E E E E E E E E
|-----------------|-----------------|-----------------|-----------------||
|-----------------|-----------------|-----------------|-----------------||
|-5-x-5-x-x-5-x-7-|-x-9-x-7-x-5-7-x-|-5-x-5-x-5-7-x-9-|-x-7-x-7-x-5-7---||
|-5-x-5-x-x-5-x-7-|-x-9-x-7-x-5-7-x-|-5-x-5-x-5-7-x-9-|-x-7-x-7-x-5-7---||
|-3---3-----3---5-|---7---5---3-5---|-3---3---3-5---7-|---5---5---3-5---||
|-----------------|-----------------|-----------------|-----------------||


  E E E E E E E E   E E E E E E E E   E E E E E E E E   E E E E E E E E
|-5-----5-5-----5-|---7---9s7-7-7---|---5---5---7---9s|=7-7-7------------|
|-5-----5-5-----5-|---7---9s7-7-7---|---5---5---7---9s|=7-7-7-------x----|
|---x-------x-----|-----------------|-----------------|-------------x-x--|
|---x-x-----x-x---|-x---x-----------|-----x---x---x---|-------x-x-x---x--|
|-5-x-x-5-5-x-x-5-|-x-7-x-9s7-7-7---|---5-x-5-x-7-x-9s|=7-7-7-x-x-x------|
|-----------------|---------------0-|-0---------------|------------------|


  E E E E E E E E   E E E E E E E E   E E E E E E E E   E E E E E E E E
|-5-----5-5-----5-|---7---9s7-7-7---|---5---5---7---9s|=7-7-7------------|
|-5-----5-5-----5-|---7---9s7-7-7---|---5---5---7---9s|=7-7-7-------x----|
|-----------------|-----------------|-----------------|-------------x-x--|
|---x-x-----x-x---|-x---x-----------|-----x---x---x---|-------x-x-x---x--|
|-5-x-x-5-5-x-x-5-|-x-7-x-9s7-7-9---|---5-x-5-x-9-x-9s|=7-7-7-x-x-x------|
|-----------------|---------------0-|-0---------------|------------------|


  Gtr II
                               ~~~~
  H       +E  +Q        +E    +H         Q   +Q
|---------------------------|-------------------------|
|-9-------(9)-(9)b11====(9)-|-(9)r-------9---(9)b11r==|
|---------------------------|-------------------------|
|---------------------------|-------------------------|
|---------------------------|-------------------------|
|---------------------------|-------------------------|
|
| Gtr I
| E E E E  E   E      E  E     E   E E E E E  E     E
|-5-----5--5-------------5--|------7---9s7-7--7-------|
|-5-----5--5-------------5--|------7---9s7-7--7-------|
|---------------------------|-------------------------|
|---x-x--------x------x-----|--x-----x----------------|
|-5-x-x-5--5---x------x--5--|--x---7-x-9s7-7--9-------|
|---------------------------|-----------------------0-|


             ~~~~
  +E  E E E +Q.     E   H       E E E E
|---------------------|------------------|
|-(9)p7---------------|------------------|
|-------9-9-(9)S====2-|-----------9-9-9--|
|---------------------|------------------|
|---------------------|------------------|
|---------------------|------------------|
|
|  E  E E E  E  E E E   E E E E E E E E
|-----5---5-----7---9s|=7-7-7------------|
|-----5---5-----7---9s|=7-7-7-------x----|
|---------------------|-------------x-x--|
|-------x----x----x---|-------x-x-x---x--|
|-----5-x-5--x--9-x-9s|=7-7-7-x-x-x------|
|--0------------------|------------------|


   A  Q    E  E E  E E  E   E  E E   E   Q   Q
|-------------------------|----------------------|
|-12s14---14-14---14---14-|---12-----------------|
|-------------------------|--------[13]S11p==9S==|
|-------------------------|----------------------|
|-------------------------|----------------------|
|-------------------------|----------------------|
|
|     E E  E  E E  E E  E   E  E E   E   E E E E
|-----5-------5-5-------5-|----7-----9s==7-7-7---|
|-----5-------5-5-------5-|----7-----9s==7-7-7---|
|-------------------------|----------------------|
|-------x--x-------x-x----|-x----x---------------|
|-----5-x--x--5-5--x-x--5-|-x--7-x---9s==7-7-9---|
|-------------------------|--------------------0-|


   ~~
   H       E E  E E    E  E  E E Q   Q
|-------------------|--------------------|
|-------------------|--------------------|
|-11---------9h11p9h|=11s13s11-------9---|
|-------------------|--------------------|
|-------------------|--------------------|
|-------------------|--------------------|
|
|  E E E E E E  E E    E  E  E E E E E E
|----5---5---7----9s|==7--7--7-----------|
|----5---5---7----9s|==7--7--7-------x---|
|-------------------|----------------x-x-|
|------x---x----x---|----------x-x-x---x-|
|----5-x-5-x-9--x-9s|==7--7--7-x-x-x-----|
|--0----------------|--------------------|


                               ~~~~
  H       +E  +Q        +E    +H         Q   +Q
|---------------------------|-------------------------|
|-9-------(9)-(9)b11====(9)-|-(9)r-------9---(9)b11r==|
|---------------------------|-------------------------|
|---------------------------|-------------------------|
|---------------------------|-------------------------|
|---------------------------|-------------------------|
|
| E E E E  E   E      E  E     E   E E E E E  E     E
|-5-----5--5-------------5--|------7---9s7-7--7-------|
|-5-----5--5-------------5--|------7---9s7-7--7-------|
|---------------------------|-------------------------|
|---x-x--------x------x-----|--x-----x----------------|
|-5-x-x-5--5---x------x--5--|--x---7-x-9s7-7--9-------|
|---------------------------|-----------------------0-|


                ~~~~~
  +E  E E  E   +H            +E    +E    Q   E E E E
|-------------------------|---------------------------|
|-(9)p7-------------------|---------------------------|
|-------9-[9]-([9])-------|-([9])-([9])\-------9-9-9--|
|-------------------------|---------------------------|
|-------------------------|---------------------------|
|-------------------------|---------------------------|
|
|  E  E E  E    E   E E E     E     E    E E E E E E
|-----5----5--------7---9s|===7-----7----7------------|
|-----5----5--------7---9s|===7-----7----7-------x----|
|-------------------------|----------------------x-x--|
|-------x-------x-----x---|----------------x-x-x---x--|
|-----5-x--5----x---9-x-9s|===7-----7----7-x-x-x------|
|--0----------------------|---------------------------|


   A  Q    E  E E  E E  E   E  E E  A  E  +Q     E E
|-------------------------|---------------------16---|
|-12s15---15-15---12---15-|---17---17-19-(19)--------|
|-------------------------|--------------------------|
|-------------------------|--------------------------|
|-------------------------|--------------------------|
|-------------------------|--------------------------|
|
|     E E  E  E E  E E  E   E  E E     E   E  E  E E
|-----5-------5-5-------5-|----7-------9s==7--7--7---|
|-----5-------5-5-------5-|----7-------9s==7--7--7---|
|-------------------------|--------------------------|
|-------x--x-------x-x----|-x----x-------------------|
|-----5-x--x--5-5--x-x--5-|-x--7-x-----9s==7--7--9---|
|-------------------------|------------------------0-|


                          ~~~~~~~~~~~~~~~~
   A      +Q     +E   E  +H           +H         +E   E Q
|----------------------------------|------------------------||
|-19b23==(19)r==(19)-17-(17)-------|-(17)-------(17)\-------||
|----------------------------------|------------------------||
|----------------------------------|------------------------||
|----------------------------------|------------------------||
|----------------------------------|------------------------||
|
|          E  E   E   E   E  E E E     E  E E E   E   E E E
|-------------5-------5------7---9s|===7--7-7---------------||
|-------------5-------5------7---9s|===7--7-7-----------x---||
|----------------------------------|--------------------x-x-||
|-----------------x-------x----x---|----------x---x---x---x-||
|-------------5---x---5---x--9-x-9s|===7--7-7-x---x---x-----||
|----------0-----------------------|------------------------||


  Gtr II
                   |----3-----|                             |---3---|
   E  A      +E   +Q     +S   S  E    E  E  E    +H         E  E    E  E  E
|---------------------------------------------|-----------------------------|
|-18-17b19==(17)-(17)r==(17)p15---------------|-----------------------------|
|-------------------------------17p==16-16-17-|-(17)-------17p16p==14-------|
|---------------------------------------------|-----------------------17-15s|
|---------------------------------------------|-----------------------------|
|---------------------------------------------|-----------------------------|
|
| Gtr I
|  E          E    E  E          E    E  E  E     E  E E E  E    E     E  E
|---------------------------------------------|-----------------------------|
|---------------------------------------------|-----------------------------|
|---------------------------------------------|-----------------------------|
|--3---------------5------------------3-----5-|------7---5-------3-----5----|
|--3---------------5------------------3-----5-|------7---5-------3-----5----|
|--1---------------3------------------1-----3-|------5---3-------1-----3----|
|
| Gtr III
|                                ~~~~
|  Q               Q            +H                W
|---------------------------------------------|-----------------------------|
|---------------------------------------------|-----------------------------|
|---------------------------------------------|-----------------------------|
|--3---------------5------------(5)\----------|-----------------------------|
|--3---------------5------------(5)\----------|-----------------------------|
|--1---------------3------------(3)\----------|-----------------------------|


                                           ~~~~
   Q    E  E  +E   Q    A  E   E  E E  E  +Q.     E
|----------------------------|------------------------|
|----------------------------|------------------------|
|----------------------------|------------------------|
|-14---15-14-(14)-15---15s17-|------------------------|
|----------------------------|---17---17-(17)---------|
|----------------------------|------------------------|
|
|  E E  E  E   E   E E     E   E  E E  E   E  E E E
|----------------------------|------------------------|
|----------------------------|------------------------|
|----------------------------|------------------------|
|--3----5------3---5-------3-|----5----5------3-5-----|
|--3----5------3---5-------3-|----5----5------3-5-----|
|--1----3------1---3-------1-|----3----3------1-3-----|
|
|  W                           W
|----------------------------|------------------------|
|----------------------------|------------------------|
|----------------------------|------------------------|
|----------------------------|------------------------|
|----------------------------|------------------------|
|----------------------------|------------------------|


   A  H        A  Q.       E    +Q     Q    +E   Q.
|----------------------------|--------------------------|
|----------------------------|--------------------------|
|----------------------------|--------14---(14)-12------|
|-------------12S14-------12-|-(12)---------------------|
|-17S10----------------------|--------------------------|
|----------------------------|--------------------------|
|
|     E E E E     E   E E  E     E  E  E E   E   E  E E
|----------------------------|--------------------------|
|----------------------------|--------------------------|
|----------------------------|--------------------------|
|-----3---5-----------3----5-|------7----5-------3--5---|
|-----3---5-----------3----5-|------7----5-------3--5---|
|-----1---3-----------1----3-|------5----3-------1--3---|
|
|                 ~~~~
|     Q   Q      +H              W
|----------------------------|--------------------------|
|----10---8------(8)\--------|--------------------------|
|-----5---7------(7)\--------|--------------------------|
|-----3---5------(5)\--------|--------------------------|
|----------------------------|--------------------------|
|----------------------------|--------------------------|


   A  Q.      E  +E  E  A      +E   +E     +H.            E  S  S
|----------------------15b19==(15)r(15)-|-(15)---------------------||
|-15S17------15-(15)--------------------|----------------13h15p13--||
|---------------------------------------|----------------13h15p13--||
|---------------------------------------|--------------------------||
|---------------------------------------|--------------------------||
|---------------------------------------|--------------------------||
|
|     E  E E  E   E  E          E    E      E  E E E E E  E  E
|---------------------------------------|--------------------------||
|---------------------------------------|--------------------------||
|---------------------------------------|--------------------------||
|-----3----5------3--5---------------3--|------5---5---3--5--------||
|-----3----5------3--5---------------3--|------5---5---3--5--------||
|-----1----3------1--3---------------1--|------3---3---1--3--------||
|
|     W                                     W
|---------------------------------------|--------------------------||
|---------------------------------------|--------------------------||
|---------------------------------------|--------------------------||
|---------------------------------------|--------------------------||
|---------------------------------------|--------------------------||
|---------------------------------------|--------------------------||


   T         T        T        T        T        T
   S   S  S  S  S  S  S  S  S  S  S  S  S  S  S  S
|-21p=16p14h19p16p14h21p16p14h18p16p14h19p16p14----|
|-----------------------------------------------21p|
|--------------------------------------------------|
|--------------------------------------------------|
|--------------------------------------------------|
|--------------------------------------------------|
|
|  W
|-!0-----------------------------------------------|
|-!0-----------------------------------------------|
|-!1-----------------------------------------------|
|-!4-----------------------------------------------|
|-!2-----------------------------------------------|
|-!0-----------------------------------------------|
|
|  W
|-(0)----------------------------------------------|
|-(0)----------------------------------------------|
|--------------------------------------------------|
|--------------------------------------------------|
|--------------------------------------------------|
|--------------------------------------------------|


          T        T        T        T
   S   S  S  S  S  S  S  S  S  S  S  S  S  S  S  S
|--------------------------------------------------|
|-16p=14h19p16p14h21p16p14h17p16p14h19p16p14s12h14-|
|--------------------------------------------------|
|--------------------------------------------------|
|--------------------------------------------------|
|--------------------------------------------------|
|
| +W
|-(0)----------------------------------------------|
|-(0)----------------------------------------------|
|-(1)----------------------------------------------|
|-(4)----------------------------------------------|
|-(2)----------------------------------------------|
|-(0)----------------------------------------------|
|
| +W
|-(0)----------------------------------------------|
|-(0)----------------------------------------------|
|--------------------------------------------------|
|--------------------------------------------------|
|--------------------------------------------------|
|--------------------------------------------------|


   T               T             T         T
                           |--3--|
   S   S  S  S  S  S  S  S E  E  E  S S S  S
|--------------------------------------------|
|-16p=14p12s11h12h14p12p11s9-11h12p11p9p7h11p|
|--------------------------------------------|
|--------------------------------------------|
|--------------------------------------------|
|--------------------------------------------|
|
| +W
|-(0)----------------------------------------|
|-(0)----------------------------------------|
|-(1)----------------------------------------|
|-(4)----------------------------------------|
|-(2)----------------------------------------|
|-(0)----------------------------------------|
|
| +W
|-(0)----------------------------------------|
|-(0)----------------------------------------|
|--------------------------------------------|
|--------------------------------------------|
|--------------------------------------------|
|--------------------------------------------|


         T      T     T     T
   S  S  S S S  S S S S S S S  S S e
|--------------------------------------|
|--9p=7--------------------------------|
|-------11p8p6-------------------------|
|--------------11p8p6------------------|
|---------------------9p6p4------------|
|---------------------------9p=6p4s2---|
|
| +W
|-(0)----------------------------------|
|-(0)----------------------------------|
|-(1)----------------------------------|
|-(4)----------------------------------|
|-(2)----------------------------------|
|-(0)----------------------------------|
|
| +H.                          E   E
|-(0)----------------------------------|
|-----------------------------14s==4---|
|-----------------------------13s==3S==|
|--------------------------------------|
|--------------------------------------|
|--------------------------------------|
   H.                          E   E


   W                          W
|-------------------------|-----------------|
|-------------------------|-----------------|
|-------------------------|-----------------|
|-------------------------|-----------------|
|-------------------------|-----------------|
|--0----------------------|-----------------|
|
|  W                         +W
|-!0----------------------|--(0)------------|
|-!0----------------------|--(0)------------|
|-!1----------------------|--(1)------------|
|-!4----------------------|--(4)------------|
|-!2----------------------|--(2)------------|
|-!0----------------------|--(0)------------|
|
| +Q.    E  +E   S  S  Q     +H      +H
|-------------------------|-----------------|
|-(4)---16-(16)-17p16p14--|-(14)----(14)----|
|--4----16-(16)-18-16-15--|-(15)----(15)----|
|-------------------------|-----------------|
|-------------------------|-----------------|
|-------------------------|-----------------|
   Q.    E  +E   S  S  Q     +H      +H


    W                      H      Q   a       +Q
|-----------------------|---------------------------||
|-----------------------|---------------------------||
|-----------------------|------------14pb20==(14)r==||
|-----------------------|---------------------------||
|-----------------------|---------------------------||
|-----------------------|---------------------------||
|
|  +W                     +Q   Q  H
|--(0)------------------|-(0)-----------------------||
|--(0)------------------|-(0)-----------------------||
|--(1)------------------|-(1)-----------------------||
|--(4)------------------|-(4)-----------------------||
|--(2)------------------|-(2)-----------------------||
|--(0)------------------|-(0)-----------------------||
|
|  +E  E E E Q  +E  +E     W
|-----------------------|---------------------------||
|-(14)-7p5h7-5--(5)-(5)-|---------------------------||
|-(15)-4p1h4------------|---------------------------||
|------------1--(1)-(1)-|---------------------------||
|-----------------------|---------------------------||
|-----------------------|---------------------------||
   +E  E E E Q  +E  +E


  Gtrs II, III
                                         ~~~~
   +H         Q    E  E   E  E E  A  E  +H
|-----------------------|-------------------------|
|-----------------------|---12---12s10-(10)-------|
|-(14)-------14---12-14-|-------------------------|
|-----------------------|-------------------------|
|-----------------------|-------------------------|
|-----------------------|-------------------------|
|
|   E  E E E  E E  E  E   E  E E     E   E  E E E
|-----------------------|-------------------------|
|-----------------------|-------------------------|
|---5--x-5-x--x-5--x--7-|-x--9-x-----7---x--5-7-x-|
|---5--x-5-x--x-5--x--7-|-x--9-x-----7---x--5-7-x-|
|---3----3------3-----5-|----7-------5------3-5---|
|-----------------------|-------------------------|


                                            ~~
   +Q.       E  +E   E  E  E    E E  E  E E Q.
|----------------------------|----------------------|
|-(10)-----/13-(13)-12-10----|---------10-----------|
|-------------------------12-|-10S9-----------------|
|----------------------------|------10----9S7-------|
|----------------------------|----------------------|
|----------------------------|----------------------|
|
|   E  E E   E   E   E  E  E    E E  E  E E E  E E
|----------------------------|----------------------|
|----------------------------|----------------------|
|---5--x-5---x---5---7--x--9-|--x-7--x--7-x-5--7----|
|---5--x-5---x---5---7--x--9-|--x-7--x--7-x-5--7----|
|---3----3-------3---5-----7-|----5-----5---3--5----|
|----------------------------|----------------------|


  +Q       E  E  +Q       E  E   E  E E  A       +E   +E   +E   Q
|------------------------------|------------------------------------|
|------------13-(13)\-------13-|---15---15pb19==(15)-(15)r(15)p13---|
|--------/14------------/14----|------------------------------------|
|-(7)\-------------------------|------------------------------------|
|------------------------------|------------------------------------|
|------------------------------|------------------------------------|
|
|  E   E   E  E   E   E   E  E   E  E E           E    E    E   E E
|------------------------------|------------------------------------|
|------------------------------|------------------------------------|
|--5---x---5--x---x---5---x--7-|-x--9-x-----------7----x----5---7-x-|
|--5---x---5--x---x---5---x--7-|-x--9-x-----------7----x----5---7-x-|
|--3-------3----------3------5-|----7-------------5---------3---5---|
|------------------------------|------------------------------------|
|
| Gtr III
| +Q       E  E  +Q       E  E   E  E E  A       +E   +E   +E   Q
|------------------------------|------------------------------------|
|------------10-(10)\-------10-|--------12pb16==(12)-(12)r(12)-11---|
|---------/9-------------/9----|---16-------------------------------|
|-(7)\-------------------------|------------------------------------|
|------------------------------|------------------------------------|
|------------------------------|------------------------------------|


   ~~~
   H.             S  S  S  S    S  S  S  S  S  S  S  S  S  S  S  S  Q
|-13------------/22-22-22-22-|-22-22-22-22-22-22-22-22-22-22-22-22-22\----||
|----------------------------|--------------------------------------------||
|----------------------------|--------------------------------------------||
|----------------------------|--------------------------------------------||
|----------------------------|--------------------------------------------||
|----------------------------|--------------------------------------------||
|
|  E  E E E E E   E     E       E     E     E     E     E     E     E  E
|----------------------------|--------------------------------------------||
|----------------------------|--------------------------------------------||
|--5--x-5-x-5-7---x-----9----|--x-----7-----x-----7-----x-----5-----7-----||
|--5--x-5-x-5-7---x-----9----|--x-----7-----x-----7-----x-----5-----7-----||
|--3----3---3-5---------7----|--------5-----------5-----------3-----5-----||
|----------------------------|--------------------------------------------||
|
|  ~~~
|  H.             S  S  S  S    S  S  S  S  S  S  S  S  S  S  S  S  Q
|-10------------/17-17-17-17-|-17-17-17-17-17-17-17-17-17-17-17-17-17\----||
|----------------------------|--------------------------------------------||
|----------------------------|--------------------------------------------||
|----------------------------|--------------------------------------------||
|----------------------------|--------------------------------------------||
|----------------------------|--------------------------------------------||


  Gtr II
  H       +E  +Q        +E    +Q.     E +E      +E  +E      +E
|---------------------------|-----------------------------------|
|-9-------(9)-(9)b11====(9)-|-(9)-----9r(9)b11==(9)r(9)b11==(9)r|
|---------------------------|-----------------------------------|
|---------------------------|-----------------------------------|
|---------------------------|-----------------------------------|
|---------------------------|-----------------------------------|
|
| E E E E  E   E      E  E     E  E E E  E       E   E       E
|-5-----5--5-------------5--|-----7---9s=7-------7---7----------|
|-5-----5--5-------------5--|-----7---9s=7-------7---7----------|
|---------------------------|-----------------------------------|
|---x-x--------x------x-----|--x----x---------------------------|
|-5-x-x-5--5---x------x--5--|--x--7-x-9s=7-------7---9----------|
|---------------------------|--------------------------------0--|


                ~~~~~
  +E  E E  E   +H            +E    +E    Q   E E E E
|-------------------------|---------------------------|
|-(9)p7-------------------|---------------------------|
|-------9-[9]-([9])-------|-([9])-([9])\-------9-9-9--|
|-------------------------|---------------------------|
|-------------------------|---------------------------|
|-------------------------|---------------------------|
|
|  E  E E  E    E   E E E     E     E    E E E E E E
|-----5----5--------7---9s|===7-----7----7------------|
|-----5----5--------7---9s|===7-----7----7-------x----|
|-------------------------|----------------------x-x--|
|-------x-------x-----x---|----------------x-x-x---x--|
|-----5-x--5----x---9-x-9s|===7-----7----7-x-x-x------|
|--0----------------------|---------------------------|


   A  Q    E  E E  E E  E   E  E E  A  E  +E  E  A E E
|-------------------------|----------------------------|
|-12s14---14-14---14---14-|---12-----------------------|
|-------------------------|--------13S11-(11)---11s9---|
|-------------------------|----------------------------|
|-------------------------|----------------------------|
|-------------------------|----------------------------|
|
|     E E  E  E E  E E  E   E  E E     E   E  E    E E
|-----5-------5-5-------5-|----7-------9s==7--7----7---|
|-----5-------5-5-------5-|----7-------9s==7--7----7---|
|-------------------------|----------------------------|
|-------x--x-------x-x----|-x----x---------------------|
|-----5-x--x--5-5--x-x--5-|-x--7-x-----9s==7--7----9---|
|-------------------------|--------------------------0-|


                                           ~~
  S  E.    +Q     +E  E  E E    E  E  E E  Q   Q
|----------------------------|----------------------|
|----------------------------|----------------------|
|-9s11----(11)---(11)-9h11p9-|-11s13s11p9-11--------|
|----------------------------|----------------------|
|----------------------------|----------------------|
|----------------------------|----------------------|
|
| E     E   E  E   E  E  E E    E  E  E E  E E E E
|-------5------5------7----9s|==7--7--7-------------|
|-------5------5------7----9s|==7--7--7--------x----|
|----------------------------|-----------------x-x--|
|-----------x------x-----x---|----------x--x-x---x--|
|-------5---x--5---x--9--x-9s|==7--7--7-x--x-x------|
|-0--------------------------|----------------------|


  Gtr II
  A      +Q    +E      +E  +E  +Q        +E    +Q.      E  +E  E  E E
|--------------------------------------------|------------------------|
|-9pb11==(9)r==(9)b11==(9)-(9)r(9)b11====(9)-|-(9)------9r=(9)---10---|
|--------------------------------------------|------------------------|
|--------------------------------------------|------------------------|
|--------------------------------------------|------------------------|
|--------------------------------------------|------------------------|
|
|         E  E  E       E   E   E      E  E     E  E E  E   E  E  E E
|---------5-------------5---5-------------5--|-----7----9s==7--7--7---|
|---------5-------------5---5-------------5--|-----7----9s==7--7--7---|
|--------------------------------------------|------------------------|
|------------x--x---------------x------x-----|--x----x----------------|
|---------5--x--x-------5---5---x------x--5--|--x--7-x--9s==7--7--9---|
|--------------------------------------------|----------------------0-|
|
| Gtr III
| A      +Q    +E      +E  +E  +Q        +E    +Q.     +E  +E  E  E E
|--------------------------------------------|------------------------|
|-2pb4===(2)r==(2)b4===(2)-(2)r(2)b4=====(2)-|-(2)-----(2)r(2)----3---|
|--------------------------------------------|------------------------|
|--------------------------------------------|------------------------|
|--------------------------------------------|------------------------|
|--------------------------------------------|------------------------|


                        ~~~~~~~~~~~~~~~
   A      +Q     +E  E +H          +Q.     +E   E  E E E
|--------------------------------|------------------------|
|--------------------------------|------------------------|
|-11b13==(11)r==(11)-9-(9)-------|-(9)-----(9)\---/9-9-9--|
|--------------------------------|------------------------|
|--------------------------------|------------------------|
|--------------------------------|------------------------|
|
|          E  E   E  E  E  E E E    E  E E  E   E  E E E
|-------------5------5-----7---9s|==7--7-7----------------|
|-------------5------5-----7---9s|==7--7-7-----------x----|
|--------------------------------|-------------------x-x--|
|-----------------x-----x----x---|----------x---x--x---x--|
|-------------5---x--5--x--9-x-9s|==7--7-7--x---x--x------|
|----------0---------------------|------------------------|
|
|                       ~~~~~~~~~~~~~~~
|  A      +Q     +E  E +H          +Q.     +E   E  E E E
|--------------------------------|------------------------|
|--------------------------------|------------------------|
|--2b4====(2)r===(2)-1-(1)-------|-(1)-----(1)\---/1-1-1--|
|--------------------------------|------------------------|
|--------------------------------|------------------------|
|--------------------------------|------------------------|


   A  Q     E    E  E  E E  E   E  E E  A  E  +Q     E E
|-----------------------------|---------------------16---|
|-12s15----15---15----14---15-|---17---17s19-(19)--------|
|-----------------------------|--------------------------|
|-----------------------------|--------------------------|
|-----------------------------|--------------------------|
|-----------------------------|--------------------------|
|
|     E E   E    E  E  E E  E   E  E E     E   E  E  E E
|-----5----------5--5-------5-|----7-------9s==7--7--7---|
|-----5----------5--5-------5-|----7-------9s==7--7--7---|
|-----------------------------|--------------------------|
|-------x---x----------x-x----|-x----x-------------------|
|-----5-x---x----5--5--x-x--5-|-x--7-x-----9s==7--7--9---|
|-----------------------------|------------------------0-|
|
|  A  Q    +E   +E  E  E E  E   E  E E  A  E  +Q     E E
|-----------------------------|---------------------19---|
|-17s19---(19)-(19)---17---19-|---21---21s22-(22)--------|
|-----------------------------|--------------------------|
|-----------------------------|--------------------------|
|-----------------------------|--------------------------|
|-----------------------------|--------------------------|


   A      +E   +E   E  A      +E   +E   +E   E  A      +E     +E   +E   E  A       +E   +Q     +E    E
|------------------16-----------------------16-------------|-----------16-19pb25==(19)-(19)---(19)r\-----|
|-19b23==(19)r(19)----19b23==(19)-(19)r(19)----19b23==(19)-|-(19)r(19)-----------------------------------|
|----------------------------------------------------------|---------------------------------------------|
|----------------------------------------------------------|---------------------------------------------|
|----------------------------------------------------------|---------------------------------------------|
|----------------------------------------------------------|---------------------------------------------|
|
|          E    E   E          E    E    E   E          E      E    E   E           E    E  E   E    E
|---------------5--------------5---------7--------------9s=|===7----7---7--------------------------------|
|---------------5--------------5---------7--------------9s=|===7----7---7-----------------------x--------|
|----------------------------------------------------------|------------------------------------x----x---|
|-------------------x---------------x--------x-------------|------------------------x----x--x--------x---|
|---------------5---x----------5----x----9---x----------9s=|===7----7---7-----------x----x--x------------|
|----------0-----------------------------------------------|---------------------------------------------|
|
|  A      +E   +E   E  A      +E   +E   +E   E  A      +E     +E   +E   E  A       +E   +Q     +E    E
|------------------19-----------------------19-------------|-----------19-22pb28==(22)-(22)---(22)r\-----|
|-22b26==(22)r(22)----22b26==(22)-(22)r(22)----22b26==(22)-|-(22)r(22)-----------------------------------|
|----------------------------------------------------------|---------------------------------------------|
|----------------------------------------------------------|---------------------------------------------|
|----------------------------------------------------------|---------------------------------------------|
|----------------------------------------------------------|---------------------------------------------|


  Gtrs I, III
                                                                     ~~~
  E E E E E E E E   E E E E E E A E E   E E E E E E E A E   E E E E +Q    Q
|-9p5-5-5-------9p|=5-5-5-------------|-9p5-5-5-----------|--------------------|
|---------9-7p5---|-------9-7p5-----5-|---------9-7p5-----|-----7-9-(9)--------|
|-----------------|-------------7s9---|---------------7s9-|---9----------------|
|-----------------|-------------------|-------------------|--------------------|
|-----------------|-------------------|-------------------|--------------------|
|-----------------|-------------------|-------------------|--------------------|
|
| E E E E E E E E   E E E E E E   E E   E E E E E E E   E   E E E E  E  E E E
|-5-----5-5-----5-|---7---9s7-7---7---|---5---5---7-----9s|=7-7-7--------------|
|-5-----5-5-----5-|---7---9s7-7---7---|---5---5---7-----9s|=7-7-7---------x----|
|-----------------|-------------------|-------------------|---------------x-x--|
|---x-x-----x-x---|-x---x-------------|-----x---x---x-----|-------x--x--x---x--|
|-5-x-x-5-5-x-x-5-|-x-7-x-9s7-7---9---|---5-x-5-x-9-x---9s|=7-7-7-x--x--x------|
|-----------------|-----------------0-|-0-----------------|--------------------|


  E E E E E E E E   E E E E E E A E E
|-9p5-5-5-------9p|=5-5-5-------------|
|---------9-7p5---|-------9-7p5-----5-|
|-----------------|-------------7s9---|
|-----------------|-------------------|
|-----------------|-------------------|
|-----------------|-------------------|
|
| E E E E E E E E   E E E E E E   E E
|-5-----5-5-----5-|---7---9s7-7---7---|
|-5-----5-5-----5-|---7---9s7-7---7---|
|-----------------|-------------------|
|---x-x-----x-x---|-x---x-------------|
|-5-x-x-5-5-x-x-5-|-x-7-x-9s7-7---9---|
|-----------------|-----------------0-|


                               ~~~
  E E E E E E E A E   E E E E +Q    Q
|-9p5-5-5-----------|--------------------||
|---------9-7p5-----|-----7-9-(9)--------||
|---------------7s9-|---9----------------||
|-------------------|--------------------||
|-------------------|--------------------||
|-------------------|--------------------||
|
| E E E E E E E   E   E E E E  E  E E E
|---5---5---7-----9s|=7-7-7--------------||
|---5---5---7-----9s|=7-7-7---------x----||
|-------------------|---------------x-x--||
|-----x---x---x-----|-------x--x--x---x--||
|---5-x-5-x-9-x---9s|=7-7-7-x--x--x------||
|-0-----------------|--------------------||


   E E E E  E  E E  E   E E E  E  E E  A  E  E
|-13p8-8-8---------13p|=8-8-8------------------|
|----------12-10-8----|-------12-10-8----------|
|---------------------|---------------10s12-12-|
|---------------------|------------------------|
|---------------------|------------------------|
|---------------------|------------------------|
|
|  E E E E  E  E E  E   E E E  E  E E     E  E
|---------------------|------------------------|
|---------------------|------------------------|
|---------------------|------------------------|
|--3---5-------3----5-|---7----5----3-----5----|
|--3---5-------3----5-|---7----5----3-----5----|
|--1---3-------1----3-|---5----3----1-----3----|


                                        ~~~~
   E E E E  E  E E  A  E   E  E  E  E  +Q    Q
|-13p8-8-8---------------|------------------------|
|----------12-10-8-------|------10-12-(12)--------|
|------------------10s12-|---12-------------------|
|------------------------|------------------------|
|------------------------|------------------------|
|------------------------|------------------------|
|
|  E E E E  E  E E     E   E  E  E  E   E  E E E
|------------------------|------------------------|
|------------------------|------------------------|
|------------------------|------------------------|
|--3---5----3--5-------3-|----5-----5------3-5----|
|--3---5----3--5-------3-|----5-----5------3-5----|
|--1---3----1--3-------1-|----3-----3------1-3----|


   E E E E  E  E E  E   E E E  E  E E  A  E  E
|-13p8-8-8---------13p|=8-8-8------------------|
|----------12-10-8----|-------12-10-8----------|
|---------------------|---------------10s12-12-|
|---------------------|------------------------|
|---------------------|------------------------|
|---------------------|------------------------|
|
|  E E E E  E  E E  E   E E E  E  E E     E  E
|---------------------|------------------------|
|---------------------|------------------------|
|---------------------|------------------------|
|--3---5-------3----5-|---7----5----3-----5----|
|--3---5-------3----5-|---7----5----3-----5----|
|--1---3-------1----3-|---5----3----1-----3----|


                                        ~~~~
   E E E E  E  E E  A  E   E  E  E  E  +Q    Q
|-13p8-8-8---------------|------------------------||
|----------12-10-8-------|------10-12-(12)--------||
|------------------10s12-|---12-------------------||
|------------------------|------------------------||
|------------------------|------------------------||
|------------------------|------------------------||
|
|  E E E E  E  E E     E   E  E  E  E   E  E E E
|------------------------|------------------------||
|------------------------|------------------------||
|------------------------|------------------------||
|--3---5----3--5-------3-|----5-----5------3-5----||
|--3---5----3--5-------3-|----5-----5------3-5----||
|--1---3----1--3-------1-|----3-----3------1-3----||


   E  E  E  E  E  E  E  E    E   E  E  E  E  E  A  E  E
|-24p19-19-19----------24p|=19--19-19-------------------|
|-------------23-21-19----|-----------23-21-19-------19-|
|-------------------------|--------------------21s23----|
|-------------------------|-----------------------------|
|-------------------------|-----------------------------|
|-------------------------|-----------------------------|
|
|  W                        +W
|-!0----------------------|-(0)-------------------------|
|-!0----------------------|-(0)-------------------------|
|-!1----------------------|-(1)-------------------------|
|-!4----------------------|-(4)-------------------------|
|-!2----------------------|-(2)-------------------------|
|-!0----------------------|-(0)-------------------------|


                                               ~~~~
   E   E  E  E  E  E  E  A  E    E   E  E  E  +Q   Q
|-24p=19-19-19----------------|-----------------------|
|--------------23-21-19-------|--------21-23-(23)-----|
|-----------------------21s23-|-----23----------------|
|-----------------------------|-----------------------|
|-----------------------------|-----------------------|
|-----------------------------|-----------------------|
|
| +W                            +W
|-(0)-------------------------|-(0)-------------------|
|-(0)-------------------------|-(0)-------------------|
|-(1)-------------------------|-(1)-------------------|
|-(4)-------------------------|-(4)-------------------|
|-(2)-------------------------|-(2)-------------------|
|-(0)-------------------------|-(0)-------------------|


   E  E  E  E  E  E  E  E    E   E  E  E  E  E  A  E  E
|-24p19-19-19----------24p|=19--19-19-------------------|
|-------------23-21-19----|-----------23-21-19-------19-|
|-------------------------|--------------------21s23----|
|-------------------------|-----------------------------|
|-------------------------|-----------------------------|
|-------------------------|-----------------------------|
|
|  W                        +W
|-!0----------------------|-(0)-------------------------|
|-!0----------------------|-(0)-------------------------|
|-!1----------------------|-(1)-------------------------|
|-!4----------------------|-(4)-------------------------|
|-!2----------------------|-(2)-------------------------|
|-!0----------------------|-(0)-------------------------|


                                               ~~~~
   E   E  E  E  E  E  E  A  E    E   E  E  E  +Q   Q
|-24p=19-19-19----------------|-----------------------||
|--------------23-21-19-------|--------21-23-(23)-----||
|-----------------------21s23-|-----23----------------||
|-----------------------------|-----------------------||
|-----------------------------|-----------------------||
|-----------------------------|-----------------------||
|
| +W                            +W
|-(0)-------------------------|-(0)-------------------||
|-(0)-------------------------|-(0)-------------------||
|-(1)-------------------------|-(1)-------------------||
|-(4)-------------------------|-(4)-------------------||
|-(2)-------------------------|-(2)-------------------||
|-(0)-------------------------|-(0)-------------------||


   E  E  E  E  E  E  E  E    E  E  E  E  E  E  A  E  E
|-25p20-20-20----------25p|=20-20-20-------------------|
|-------------24-22-20----|----------24-22-20-------20-|
|-------------------------|-------------------22s24----|
|-------------------------|----------------------------|
|-------------------------|----------------------------|
|-------------------------|----------------------------|
|
|  E  E  E  E  E  E  E  E    E  E  E  E  E  E     E  E
|-------------------------|----------------------------|
|-------------------------|----------------------------|
|--5--x--5--x--x--5--x--7-|--x--9--x--7--x--5-----7--x-|
|--5--x--5--x--x--5--x--7-|--x--9--x--7--x--5-----7--x-|
|--3-----3--------3-----5-|-----7-----5-----3-----5----|
|-------------------------|----------------------------|


                                            ~~~~
   E  E  E  E  E  E  E  A  E   E  E  E  E  +Q.     E
|-25p20-20-20----------------|-----------------------|
|-------------24-22-20-------|------20-24-(24)-------|
|----------------------22s24-|---24------------------|
|----------------------------|-----------------------|
|----------------------------|-----------------------|
|----------------------------|-----------------------|
|
|  E  E  E  E  E  E  E     E   E  E  E  E   E  E E E
|----------------------------|-----------------------|
|----------------------------|-----------------------|
|--5--x--5--x--5--7--x-----9-|-x--7--x--7---x--5-7---|
|--5--x--5--x--5--7--x-----9-|-x--7--x--7---x--5-7---|
|--3-----3-----3--5--------7-|----5-----5------3-5---|
|----------------------------|-----------------------|


   E  E  E  E  E  E  E  E    E  E  E  E  E  E  A  E  E
|-25p20-20-20----------25p|=20-20-20-------------------|
|-------------24-22-20----|----------24-22-20-------20-|
|-------------------------|-------------------22s24----|
|-------------------------|----------------------------|
|-------------------------|----------------------------|
|-------------------------|----------------------------|
|
|  E  E  E  E  E  E  E  E    E  E  E  E  E  E     E  E
|-------------------------|----------------------------|
|-------------------------|----------------------------|
|--5--x--5--x--x--5--x--7-|--x--9--x--7--x--5-----7--x-|
|--5--x--5--x--x--5--x--7-|--x--9--x--7--x--5-----7--x-|
|--3-----3--------3-----5-|-----7-----5-----3-----5----|
|-------------------------|----------------------------|


   E  E  E  E  E  E  E  A  E    +H         +Q     Q
|-25p20-20-20----------------|------------------------|
|-------------24-22-20-------|------------------------|
|----------------------22s24-|-(24)-------(24)\-------|
|----------------------------|------------------------|
|----------------------------|------------------------|
|----------------------------|------------------------|
|
|  E  E  E  E  E  E  E     E     E  E E E   E   E E E
|----------------------------|------------------------|
|----------------------------|------------------------|
|--5--x--5--x--5--7--x-----9-|---x--7-x-7---x---5-7---|
|--5--x--5--x--5--7--x-----9-|---x--7-x-7---x---5-7---|
|--3-----3-----3--5--------7-|------5---5-------3-5---|
|----------------------------|------------------------|


   H        +Q.      +E         +E   Q        E     +Q      +Q
|----------------------------|---------------------------------------|
|-21-------(21)-----(21)b23==|=(21)-21pb23---21b23-(21)r---(21)b23r==|
|----------------------------|---------------------------------------|
|----------------------------|---------------------------------------|
|----------------------------|---------------------------------------|
|----------------------------|---------------------------------------|
|
|  E E E E   E  E E   E          E   E     E  E      E   E   E     E
|--5-----5---5--------5------|-------7--------9s=====7---7---7-------|
|--5-----5---5--------5------|-------7--------9s=====7---7---7-------|
|----------------------------|---------------------------------------|
|----x-x--------x-x----------|---x---------x-------------------------|
|--5-x-x-5---5--x-x---5------|---x---7-----x--9s=====7---7---9-------|
|----------------------------|-------------------------------------0-|


                  ~~~~~~~~~~~~~~~~
   +E   E  E  E  +H           +H.           Q
|--------------------------|---------------------|
|-(21)p19------------------|---------------------|
|---------21-21-(21)-------|-(21)----------------|
|--------------------------|---------------------|
|--------------------------|---------------------|
|--------------------------|---------------------|
|
|   E   E  E  E   E  E E E     E  E E E E E E E
|-------5-----5------7---9s|===7--7-7------------|
|-------5-----5------7---9s|===7--7-7-------x----|
|--------------------------|----------------x-x--|
|----------x------x----x---|----------x-x-x---x--|
|-------5--x--5---x--9-x-9s|===7--7-7-x-x-x------|
|---0----------------------|---------------------|


   H        +Q.      +E         +Q.      E      +Q      +Q
|-24-------(24)-----(24)b28==|=(24)-----24pb28-(24)r---(24)b28r==|
|----------------------------|-----------------------------------|
|----------------------------|-----------------------------------|
|----------------------------|-----------------------------------|
|----------------------------|-----------------------------------|
|----------------------------|-----------------------------------|
|
|  E E E E   E  E E   E          E  E E  E       E   E   E     E
|--5-----5---5--------5------|------7----9s======7---7---7-------|
|--5-----5---5--------5------|------7----9s======7---7---7-------|
|----------------------------|-----------------------------------|
|----x-x--------x-x----------|---x----x--------------------------|
|--5-x-x-5---5--x-x---5------|---x--7-x--9s======7---7---9-------|
|----------------------------|---------------------------------0-|


                             ~~~
   +E   E  E  E E  E E  E    H.           Q
|-(24)-21-21-22---21---22-|-22-----------------||
|-------------------------|--------------------||
|-------------------------|--------------------||
|-------------------------|--------------------||
|-------------------------|--------------------||
|-------------------------|--------------------||
|
|   E   E  E  E E  E E  E    E  E E E E E E E
|-------5-----5----7----9s|==7--7-7------------||
|-------5-----5----7----9s|==7--7-7-------7----||
|-------------------------|--------------------||
|----------x----x----x----|---------x-x-x-9----||
|-------5--x--5-x--9-x--9s|==7--7-7-x-x-x-7----||
|---0---------------------|--------------------||


 3/4        4/4
  H    Q     W            Q   a  Q   Q.    E
|---------||----------:----------------------:
|---------||----------:----------------------:
|---------||----------:-/11--11S13--15----15s:
|---------||----------:----------------------:
|---------||----------:--/9---9S11--13----13s:
|---------||----------:----------------------:


                               ~
   |-----5-----|
   S  S  S  S  S  E  E  a  E.S Q    S E. a  E E +E  S S  Q
|---------------------------------:----------------------------*|
|---------------------------------:----------------------------*|
|-16s18s16s18s16-15S13-13S15S9-9--:-8S9--9S11S6-(6)------------*|
|---------------------------------:-----------------6S4-(4)----*|
|-14s16s14s16s14-13S11-11S13S7-7--:-3S7--7S=9S4-(4)------------*|
|---------------------------------:----------------------2-----*|




--------------------------------------------------------------------------------


Duration Legend
---------------
W - whole; H - half; Q - quarter; E - 8th; S - 16th; T - 32nd; X - 64th; a - acciaccatura
+ - note tied to previous; . - note dotted; .. - note double dotted
Uncapitalized letters represent notes that are staccato (1/2 duration)
Irregular groupings are notated above the duration line
Duration letters will always appear directly above the note/fret number it represents the
duration for.  Duration letters with no fret number below them represent rests.  Multi-
bar rests are notated in the form Wxn, where n is the number of bars to rest for.  Low
melody durations appear below the staff

Tablature Legend
----------------
 h   - hammer-on
 p   - pull-off
 b   - bend
 pb  - pre-bend
 r   - bend release (if no number after the r, then release immediately)
 /\  - slide into or out of (from/to "nowhere")
 s   - legato slide
 S   - shift slide
 - natural harmonic
[n]  - artificial harmonic
n(n) - tapped harmonic
 ~   - vibrato
 tr  - trill
 T   - tap
 TP  - trem. picking
 PM  - palm muting
\n/  - tremolo bar dip; n = amount to dip
 \n  - tremolo bar down
 n/  - tremolo bar up
/n\  - tremolo bar inverted dip
 =   - hold bend; also acts as connecting device for hammers/pulls
 <> - volume swell (louder/softer)
 x   - on rhythm slash represents muted slash
 o   - on rhythm slash represents single note slash
[ Tab from: http://www.guitartabs.cc/tabs/s/steve_vai/answers_tab_ver_2.html ]
Misc Legend
-----------
 |  - bar
||  - double bar
||o - repeat start
o|| - repeat end
*|  - double bar (ending)
 :  - bar (freetime)
 $  - Segno
 &  - Coda
Tempo markers -  = BPM(8/16=s8/s16), where s8 = swing 8ths, s16 = swing 16ths



--------------------------------------------------------------------------------




 

 

Gtr I (E A D G B E) - 'Untitled'
Gtr II (E A D G B E) - 'Untitled'
Gtr III (E A D G B E) - 'Untitled'


 Intro
  Q=214
 4/4
  Gtr I
  E E E E E E E E   E E E E E E E E   E E E E E E E E   E E E E E E E E
|-5-----5-5-----5-|---7---9s7-7-7---|---5---5---7---9s|=7-7-7-----------|
|-5-----5-5-----5-|---7---9s7-7-7---|---5---5---7---9s|=7-7-7-------x---|
|---x-------x-----|-----------------|-----------------|-------------x-x-|
|---x-x-----x-x---|-x---x-----------|-----x---x---7---|-------x-x-x---x-|
|-5-x-x-5-5-x-x-5-|-x-7-x-9s7-7-7---|---5-x-5-x-7-7-9s|=7-7-7-x-x-x-----|
|-----------------|---------------0-|-0---------------|-----------------|


  E E E E E E E E   E E E E E E E E   E E E E E E E E   E E E E E E E E
|-5-----5-5-----5-|---7---9s7-7-7---|---5---5---7---9s|=7-7-7------------|
|-5-----5-5-----5-|---7---9s7-7-7---|---5---5---7---9s|=7-7-7-------x----|
|---x-------x-----|-----------------|-----------------|-------------x-x--|
|---x-x-----x-x---|-x---x-----------|-----x---x---7---|-------x-x-x---x--|
|-5-x-x-5-5-x-x-5-|-x-7-x-9s7-7-7---|---5-x-5-x-7-7-9s|=7-7-7-x-x-x------|
|-----------------|---------------0-|-0---------------|------------------|


  E E E E E E E E   E E E E E E E E   E E E E E E E E   E E E E E E E E
|-5-----5-5-----5-|---7---9s7-7-----|---5-------7---9s|=7-7-7------------|
|-5-----5-5-----5-|---7---9s7-7-7---|---5---5---7---9s|=7-7-7-------x----|
|-----------------|-----------------|-----------------|-------------x-x--|
|---x-x-----x-x---|-x---x-----------|-----x---x---x---|-------x-x-x---x--|
|-5-5-x-5-5-x-x-5-|-x-7-x-9s7-7-7---|---5-x-5-x-9-x-9s|=7-5-5-x-x-x------|
|-----------------|---------------0-|-0---------------|------------------|


  E E E E E E E E   E E E E E E E E   E E E E E E E E   E E E E E E E E
|-5-----5-5-----5-|-------9s7-7-----|---5-------7---9s|=7-7-7-------7----||
|-5-----5-5-----5-|---7---9s7-7-7---|---5---5---7---9s|=7-7-7-------7----||
|---x-------------|-----------------|-----------------|------------------||
|---x-x-----x-x---|-x---x-----------|-----x---x---x---|-------x-x-x------||
|-5-x-x-5-5-x-x-5-|-x-7-x-9s7-7-7---|---5-x-5-x-7-x-9s|=7-7-7-x-x-x-7----||
|-----------------|---------------0-|-0---------------|------------------||


  Gtr I
  E E E E  E   E E E   E E E E E E E E   E E E E E E E E   E E E E E E E E
|--------------------|-----------------|-----------------|------------------|
|--------------------|-----------------|-----------------|------------------|
|--------------------|-----------------|-----------------|------------------|
|-3---5--------3---5-|---7---5---3-5---|-3---5---3-5---3-|---5---5---3-5----|
|-3---5--------3---5-|---7---5---3-5---|-3---5---3-5---3-|---5---5---3-5----|
|-1---3--------1---3-|---5---3---1-3---|-1---3---1-3---1-|---3---3---1-3----|
|
| Gtr III
|          ~~~~
| Q   Q   +H           W                 W                 W
|--------------------|-----------------|-----------------|------------------|
|--------------------|-----------------|-----------------|------------------|
|--------------------|-----------------|-----------------|------------------|
|-3---5---(5)\-------|-----------------|-----------------|------------------|
|-3---5---(5)\-------|-----------------|-----------------|------------------|
|-1---3---(3)\-------|-----------------|-----------------|------------------|


   E E E E  E   E E E   E E E E E E E E   E E E E E E E E   E E E E E E E E
|---------------------|-----------------|-----------------|-----------------||
|---------------------|-----------------|-----------------|-----------------||
|---------------------|-----------------|-----------------|-----------------||
|--3---5--------3---5-|---7---5---3-5---|-3---5---3-5---3-|---5---5---3-5---||
|--3---5--------3---5-|---7---5---3-5---|-3---5---3-5---3-|---5---5---3-5---||
|--1---3--------1---3-|---5---3---1-3---|-1---3---1-3---1-|---3---3---1-3---||
|
|           ~~~~
|  Q   Q   +H           W                 W                 W
|---------------------|-----------------|-----------------|-----------------||
|-10---8---(8)\-------|-----------------|-----------------|-----------------||
|--5---7---(7)\-------|-----------------|-----------------|-----------------||
|--3---5---(5)\-------|-----------------|-----------------|-----------------||
|---------------------|-----------------|-----------------|-----------------||
|---------------------|-----------------|-----------------|-----------------||


   W          +W           +W           +W
|-!0--------|-(0)--------|-(0)--------|-(0)----|
|-!0--------|-(0)--------|-(0)--------|-(0)----|
|-!1--------|-(1)--------|-(1)--------|-(1)----|
|-!4--------|-(4)--------|-(4)--------|-(4)----|
|-!2--------|-(2)--------|-(2)--------|-(2)----|
|-!0--------|-(0)--------|-(0)--------|-(0)----|


   W          +W           +W           +Q   Q  H
|-!0--------|-(0)--------|-(0)--------|-(0)----------||
|-!0--------|-(0)--------|-(0)--------|-(0)----------||
|-!1--------|-(1)--------|-(1)--------|-(1)----------||
|-!4--------|-(4)--------|-(4)--------|-(4)----------||
|-!2--------|-(2)--------|-(2)--------|-(2)----------||
|-!0--------|-(0)--------|-(0)--------|-(0)----------||


  E E E E E E E E   E E E E E E E E   E E E E E E E E   E E E E E E E E
|-----------------|-----------------|-----------------|------------------|
|-----------------|-----------------|-----------------|------------------|
|-5-x-5-x-x-5-x-7-|-x-9-x-7-x-5-7-x-|-5-x-5-x-5-7-x-9-|-x-7-x-7-x-5-7----|
|-5-x-5-x-x-5-x-7-|-x-9-x-7-x-5-7-x-|-5-x-5-x-5-7-x-9-|-x-7-x-7-x-5-7----|
|-3---3-----3---5-|---7---5---3-5---|-3---3---3-5---7-|---5---5---3-5----|
|-----------------|-----------------|-----------------|------------------|


  E E E E E E E E   E E E E E E E E   E E E E E E E E   E E E E E E E E
|-----------------|-----------------|-----------------|-----------------||
|-----------------|-----------------|-----------------|-----------------||
|-5-x-5-x-x-5-x-7-|-x-9-x-7-x-5-7-x-|-5-x-5-x-5-7-x-9-|-x-7-x-7-x-5-7---||
|-5-x-5-x-x-5-x-7-|-x-9-x-7-x-5-7-x-|-5-x-5-x-5-7-x-9-|-x-7-x-7-x-5-7---||
|-3---3-----3---5-|---7---5---3-5---|-3---3---3-5---7-|---5---5---3-5---||
|-----------------|-----------------|-----------------|-----------------||


  E E E E E E E E   E E E E E E E E   E E E E E E E E   E E E E E E E E
|-5-----5-5-----5-|---7---9s7-7-7---|---5---5---7---9s|=7-7-7------------|
|-5-----5-5-----5-|---7---9s7-7-7---|---5---5---7---9s|=7-7-7-------x----|
|---x-------x-----|-----------------|-----------------|-------------x-x--|
|---x-x-----x-x---|-x---x-----------|-----x---x---x---|-------x-x-x---x--|
|-5-x-x-5-5-x-x-5-|-x-7-x-9s7-7-7---|---5-x-5-x-7-x-9s|=7-7-7-x-x-x------|
|-----------------|---------------0-|-0---------------|------------------|


  E E E E E E E E   E E E E E E E E   E E E E E E E E   E E E E E E E E
|-5-----5-5-----5-|---7---9s7-7-7---|---5---5---7---9s|=7-7-7------------|
|-5-----5-5-----5-|---7---9s7-7-7---|---5---5---7---9s|=7-7-7-------x----|
|-----------------|-----------------|-----------------|-------------x-x--|
|---x-x-----x-x---|-x---x-----------|-----x---x---x---|-------x-x-x---x--|
|-5-x-x-5-5-x-x-5-|-x-7-x-9s7-7-9---|---5-x-5-x-9-x-9s|=7-7-7-x-x-x------|
|-----------------|---------------0-|-0---------------|------------------|


  Gtr II
                               ~~~~
  H       +E  +Q        +E    +H         Q   +Q
|---------------------------|-------------------------|
|-9-------(9)-(9)b11====(9)-|-(9)r-------9---(9)b11r==|
|---------------------------|-------------------------|
|---------------------------|-------------------------|
|---------------------------|-------------------------|
|---------------------------|-------------------------|
|
| Gtr I
| E E E E  E   E      E  E     E   E E E E E  E     E
|-5-----5--5-------------5--|------7---9s7-7--7-------|
|-5-----5--5-------------5--|------7---9s7-7--7-------|
|---------------------------|-------------------------|
|---x-x--------x------x-----|--x-----x----------------|
|-5-x-x-5--5---x------x--5--|--x---7-x-9s7-7--9-------|
|---------------------------|-----------------------0-|


             ~~~~
  +E  E E E +Q.     E   H       E E E E
|---------------------|------------------|
|-(9)p7---------------|------------------|
|-------9-9-(9)S====2-|-----------9-9-9--|
|---------------------|------------------|
|---------------------|------------------|
|---------------------|------------------|
|
|  E  E E E  E  E E E   E E E E E E E E
|-----5---5-----7---9s|=7-7-7------------|
|-----5---5-----7---9s|=7-7-7-------x----|
|---------------------|-------------x-x--|
|-------x----x----x---|-------x-x-x---x--|
|-----5-x-5--x--9-x-9s|=7-7-7-x-x-x------|
|--0------------------|------------------|


   A  Q    E  E E  E E  E   E  E E   E   Q   Q
|-------------------------|----------------------|
|-12s14---14-14---14---14-|---12-----------------|
|-------------------------|--------[13]S11p==9S==|
|-------------------------|----------------------|
|-------------------------|----------------------|
|-------------------------|----------------------|
|
|     E E  E  E E  E E  E   E  E E   E   E E E E
|-----5-------5-5-------5-|----7-----9s==7-7-7---|
|-----5-------5-5-------5-|----7-----9s==7-7-7---|
|-------------------------|----------------------|
|-------x--x-------x-x----|-x----x---------------|
|-----5-x--x--5-5--x-x--5-|-x--7-x---9s==7-7-9---|
|-------------------------|--------------------0-|


   ~~
   H       E E  E E    E  E  E E Q   Q
|-------------------|--------------------|
|-------------------|--------------------|
|-11---------9h11p9h|=11s13s11-------9---|
|-------------------|--------------------|
|-------------------|--------------------|
|-------------------|--------------------|
|
|  E E E E E E  E E    E  E  E E E E E E
|----5---5---7----9s|==7--7--7-----------|
|----5---5---7----9s|==7--7--7-------x---|
|-------------------|----------------x-x-|
|------x---x----x---|----------x-x-x---x-|
|----5-x-5-x-9--x-9s|==7--7--7-x-x-x-----|
|--0----------------|--------------------|


                               ~~~~
  H       +E  +Q        +E    +H         Q   +Q
|---------------------------|-------------------------|
|-9-------(9)-(9)b11====(9)-|-(9)r-------9---(9)b11r==|
|---------------------------|-------------------------|
|---------------------------|-------------------------|
|---------------------------|-------------------------|
|---------------------------|-------------------------|
|
| E E E E  E   E      E  E     E   E E E E E  E     E
|-5-----5--5-------------5--|------7---9s7-7--7-------|
|-5-----5--5-------------5--|------7---9s7-7--7-------|
|---------------------------|-------------------------|
|---x-x--------x------x-----|--x-----x----------------|
|-5-x-x-5--5---x------x--5--|--x---7-x-9s7-7--9-------|
|---------------------------|-----------------------0-|


                ~~~~~
  +E  E E  E   +H            +E    +E    Q   E E E E
|-------------------------|---------------------------|
|-(9)p7-------------------|---------------------------|
|-------9-[9]-([9])-------|-([9])-([9])\-------9-9-9--|
|-------------------------|---------------------------|
|-------------------------|---------------------------|
|-------------------------|---------------------------|
|
|  E  E E  E    E   E E E     E     E    E E E E E E
|-----5----5--------7---9s|===7-----7----7------------|
|-----5----5--------7---9s|===7-----7----7-------x----|
|-------------------------|----------------------x-x--|
|-------x-------x-----x---|----------------x-x-x---x--|
|-----5-x--5----x---9-x-9s|===7-----7----7-x-x-x------|
|--0----------------------|---------------------------|


   A  Q    E  E E  E E  E   E  E E  A  E  +Q     E E
|-------------------------|---------------------16---|
|-12s15---15-15---12---15-|---17---17-19-(19)--------|
|-------------------------|--------------------------|
|-------------------------|--------------------------|
|-------------------------|--------------------------|
|-------------------------|--------------------------|
|
|     E E  E  E E  E E  E   E  E E     E   E  E  E E
|-----5-------5-5-------5-|----7-------9s==7--7--7---|
|-----5-------5-5-------5-|----7-------9s==7--7--7---|
|-------------------------|--------------------------|
|-------x--x-------x-x----|-x----x-------------------|
|-----5-x--x--5-5--x-x--5-|-x--7-x-----9s==7--7--9---|
|-------------------------|------------------------0-|


                          ~~~~~~~~~~~~~~~~
   A      +Q     +E   E  +H           +H         +E   E Q
|----------------------------------|------------------------||
|-19b23==(19)r==(19)-17-(17)-------|-(17)-------(17)\-------||
|----------------------------------|------------------------||
|----------------------------------|------------------------||
|----------------------------------|------------------------||
|----------------------------------|------------------------||
|
|          E  E   E   E   E  E E E     E  E E E   E   E E E
|-------------5-------5------7---9s|===7--7-7---------------||
|-------------5-------5------7---9s|===7--7-7-----------x---||
|----------------------------------|--------------------x-x-||
|-----------------x-------x----x---|----------x---x---x---x-||
|-------------5---x---5---x--9-x-9s|===7--7-7-x---x---x-----||
|----------0-----------------------|------------------------||


  Gtr II
                   |----3-----|                             |---3---|
   E  A      +E   +Q     +S   S  E    E  E  E    +H         E  E    E  E  E
|---------------------------------------------|-----------------------------|
|-18-17b19==(17)-(17)r==(17)p15---------------|-----------------------------|
|-------------------------------17p==16-16-17-|-(17)-------17p16p==14-------|
|---------------------------------------------|-----------------------17-15s|
|---------------------------------------------|-----------------------------|
|---------------------------------------------|-----------------------------|
|
| Gtr I
|  E          E    E  E          E    E  E  E     E  E E E  E    E     E  E
|---------------------------------------------|-----------------------------|
|---------------------------------------------|-----------------------------|
|---------------------------------------------|-----------------------------|
|--3---------------5------------------3-----5-|------7---5-------3-----5----|
|--3---------------5------------------3-----5-|------7---5-------3-----5----|
|--1---------------3------------------1-----3-|------5---3-------1-----3----|
|
| Gtr III
|                                ~~~~
|  Q               Q            +H                W
|---------------------------------------------|-----------------------------|
|---------------------------------------------|-----------------------------|
|---------------------------------------------|-----------------------------|
|--3---------------5------------(5)\----------|-----------------------------|
|--3---------------5------------(5)\----------|-----------------------------|
|--1---------------3------------(3)\----------|-----------------------------|


                                           ~~~~
   Q    E  E  +E   Q    A  E   E  E E  E  +Q.     E
|----------------------------|------------------------|
|----------------------------|------------------------|
|----------------------------|------------------------|
|-14---15-14-(14)-15---15s17-|------------------------|
|----------------------------|---17---17-(17)---------|
|----------------------------|------------------------|
|
|  E E  E  E   E   E E     E   E  E E  E   E  E E E
|----------------------------|------------------------|
|----------------------------|------------------------|
|----------------------------|------------------------|
|--3----5------3---5-------3-|----5----5------3-5-----|
|--3----5------3---5-------3-|----5----5------3-5-----|
|--1----3------1---3-------1-|----3----3------1-3-----|
|
|  W                           W
|----------------------------|------------------------|
|----------------------------|------------------------|
|----------------------------|------------------------|
|----------------------------|------------------------|
|----------------------------|------------------------|
|----------------------------|------------------------|


   A  H        A  Q.       E    +Q     Q    +E   Q.
|----------------------------|--------------------------|
|----------------------------|--------------------------|
|----------------------------|--------14---(14)-12------|
|-------------12S14-------12-|-(12)---------------------|
|-17S10----------------------|--------------------------|
|----------------------------|--------------------------|
|
|     E E E E     E   E E  E     E  E  E E   E   E  E E
|----------------------------|--------------------------|
|----------------------------|--------------------------|
|----------------------------|--------------------------|
|-----3---5-----------3----5-|------7----5-------3--5---|
|-----3---5-----------3----5-|------7----5-------3--5---|
|-----1---3-----------1----3-|------5----3-------1--3---|
|
|                 ~~~~
|     Q   Q      +H              W
|----------------------------|--------------------------|
|----10---8------(8)\--------|--------------------------|
|-----5---7------(7)\--------|--------------------------|
|-----3---5------(5)\--------|--------------------------|
|----------------------------|--------------------------|
|----------------------------|--------------------------|


   A  Q.      E  +E  E  A      +E   +E     +H.            E  S  S
|----------------------15b19==(15)r(15)-|-(15)---------------------||
|-15S17------15-(15)--------------------|----------------13h15p13--||
|---------------------------------------|----------------13h15p13--||
|---------------------------------------|--------------------------||
|---------------------------------------|--------------------------||
|---------------------------------------|--------------------------||
|
|     E  E E  E   E  E          E    E      E  E E E E E  E  E
|---------------------------------------|--------------------------||
|---------------------------------------|--------------------------||
|---------------------------------------|--------------------------||
|-----3----5------3--5---------------3--|------5---5---3--5--------||
|-----3----5------3--5---------------3--|------5---5---3--5--------||
|-----1----3------1--3---------------1--|------3---3---1--3--------||
|
|     W                                     W
|---------------------------------------|--------------------------||
|---------------------------------------|--------------------------||
|---------------------------------------|--------------------------||
|---------------------------------------|--------------------------||
|---------------------------------------|--------------------------||
|---------------------------------------|--------------------------||


   T         T        T        T        T        T
   S   S  S  S  S  S  S  S  S  S  S  S  S  S  S  S
|-21p=16p14h19p16p14h21p16p14h18p16p14h19p16p14----|
|-----------------------------------------------21p|
|--------------------------------------------------|
|--------------------------------------------------|
|--------------------------------------------------|
|--------------------------------------------------|
|
|  W
|-!0-----------------------------------------------|
|-!0-----------------------------------------------|
|-!1-----------------------------------------------|
|-!4-----------------------------------------------|
|-!2-----------------------------------------------|
|-!0-----------------------------------------------|
|
|  W
|-(0)----------------------------------------------|
|-(0)----------------------------------------------|
|--------------------------------------------------|
|--------------------------------------------------|
|--------------------------------------------------|
|--------------------------------------------------|


          T        T        T        T
   S   S  S  S  S  S  S  S  S  S  S  S  S  S  S  S
|--------------------------------------------------|
|-16p=14h19p16p14h21p16p14h17p16p14h19p16p14s12h14-|
|--------------------------------------------------|
|--------------------------------------------------|
|--------------------------------------------------|
|--------------------------------------------------|
|
| +W
|-(0)----------------------------------------------|
|-(0)----------------------------------------------|
|-(1)----------------------------------------------|
|-(4)----------------------------------------------|
|-(2)----------------------------------------------|
|-(0)----------------------------------------------|
|
| +W
|-(0)----------------------------------------------|
|-(0)----------------------------------------------|
|--------------------------------------------------|
|--------------------------------------------------|
|--------------------------------------------------|
|--------------------------------------------------|


   T               T             T         T
                           |--3--|
   S   S  S  S  S  S  S  S E  E  E  S S S  S
|--------------------------------------------|
|-16p=14p12s11h12h14p12p11s9-11h12p11p9p7h11p|
|--------------------------------------------|
|--------------------------------------------|
|--------------------------------------------|
|--------------------------------------------|
|
| +W
|-(0)----------------------------------------|
|-(0)----------------------------------------|
|-(1)----------------------------------------|
|-(4)----------------------------------------|
|-(2)----------------------------------------|
|-(0)----------------------------------------|
|
| +W
|-(0)----------------------------------------|
|-(0)----------------------------------------|
|--------------------------------------------|
|--------------------------------------------|
|--------------------------------------------|
|--------------------------------------------|


         T      T     T     T
   S  S  S S S  S S S S S S S  S S e
|--------------------------------------|
|--9p=7--------------------------------|
|-------11p8p6-------------------------|
|--------------11p8p6------------------|
|---------------------9p6p4------------|
|---------------------------9p=6p4s2---|
|
| +W
|-(0)----------------------------------|
|-(0)----------------------------------|
|-(1)----------------------------------|
|-(4)----------------------------------|
|-(2)----------------------------------|
|-(0)----------------------------------|
|
| +H.                          E   E
|-(0)----------------------------------|
|-----------------------------14s==4---|
|-----------------------------13s==3S==|
|--------------------------------------|
|--------------------------------------|
|--------------------------------------|
   H.                          E   E


   W                          W
|-------------------------|-----------------|
|-------------------------|-----------------|
|-------------------------|-----------------|
|-------------------------|-----------------|
|-------------------------|-----------------|
|--0----------------------|-----------------|
|
|  W                         +W
|-!0----------------------|--(0)------------|
|-!0----------------------|--(0)------------|
|-!1----------------------|--(1)------------|
|-!4----------------------|--(4)------------|
|-!2----------------------|--(2)------------|
|-!0----------------------|--(0)------------|
|
| +Q.    E  +E   S  S  Q     +H      +H
|-------------------------|-----------------|
|-(4)---16-(16)-17p16p14--|-(14)----(14)----|
|--4----16-(16)-18-16-15--|-(15)----(15)----|
|-------------------------|-----------------|
|-------------------------|-----------------|
|-------------------------|-----------------|
   Q.    E  +E   S  S  Q     +H      +H


    W                      H      Q   a       +Q
|-----------------------|---------------------------||
|-----------------------|---------------------------||
|-----------------------|------------14pb20==(14)r==||
|-----------------------|---------------------------||
|-----------------------|---------------------------||
|-----------------------|---------------------------||
|
|  +W                     +Q   Q  H
|--(0)------------------|-(0)-----------------------||
|--(0)------------------|-(0)-----------------------||
|--(1)------------------|-(1)-----------------------||
|--(4)------------------|-(4)-----------------------||
|--(2)------------------|-(2)-----------------------||
|--(0)------------------|-(0)-----------------------||
|
|  +E  E E E Q  +E  +E     W
|-----------------------|---------------------------||
|-(14)-7p5h7-5--(5)-(5)-|---------------------------||
|-(15)-4p1h4------------|---------------------------||
|------------1--(1)-(1)-|---------------------------||
|-----------------------|---------------------------||
|-----------------------|---------------------------||
   +E  E E E Q  +E  +E


  Gtrs II, III
                                         ~~~~
   +H         Q    E  E   E  E E  A  E  +H
|-----------------------|-------------------------|
|-----------------------|---12---12s10-(10)-------|
|-(14)-------14---12-14-|-------------------------|
|-----------------------|-------------------------|
|-----------------------|-------------------------|
|-----------------------|-------------------------|
|
|   E  E E E  E E  E  E   E  E E     E   E  E E E
|-----------------------|-------------------------|
|-----------------------|-------------------------|
|---5--x-5-x--x-5--x--7-|-x--9-x-----7---x--5-7-x-|
|---5--x-5-x--x-5--x--7-|-x--9-x-----7---x--5-7-x-|
|---3----3------3-----5-|----7-------5------3-5---|
|-----------------------|-------------------------|


                                            ~~
   +Q.       E  +E   E  E  E    E E  E  E E Q.
|----------------------------|----------------------|
|-(10)-----/13-(13)-12-10----|---------10-----------|
|-------------------------12-|-10S9-----------------|
|----------------------------|------10----9S7-------|
|----------------------------|----------------------|
|----------------------------|----------------------|
|
|   E  E E   E   E   E  E  E    E E  E  E E E  E E
|----------------------------|----------------------|
|----------------------------|----------------------|
|---5--x-5---x---5---7--x--9-|--x-7--x--7-x-5--7----|
|---5--x-5---x---5---7--x--9-|--x-7--x--7-x-5--7----|
|---3----3-------3---5-----7-|----5-----5---3--5----|
|----------------------------|----------------------|


  +Q       E  E  +Q       E  E   E  E E  A       +E   +E   +E   Q
|------------------------------|------------------------------------|
|------------13-(13)\-------13-|---15---15pb19==(15)-(15)r(15)p13---|
|--------/14------------/14----|------------------------------------|
|-(7)\-------------------------|------------------------------------|
|------------------------------|------------------------------------|
|------------------------------|------------------------------------|
|
|  E   E   E  E   E   E   E  E   E  E E           E    E    E   E E
|------------------------------|------------------------------------|
|------------------------------|------------------------------------|
|--5---x---5--x---x---5---x--7-|-x--9-x-----------7----x----5---7-x-|
|--5---x---5--x---x---5---x--7-|-x--9-x-----------7----x----5---7-x-|
|--3-------3----------3------5-|----7-------------5---------3---5---|
|------------------------------|------------------------------------|
|
| Gtr III
| +Q       E  E  +Q       E  E   E  E E  A       +E   +E   +E   Q
|------------------------------|------------------------------------|
|------------10-(10)\-------10-|--------12pb16==(12)-(12)r(12)-11---|
|---------/9-------------/9----|---16-------------------------------|
|-(7)\-------------------------|------------------------------------|
|------------------------------|------------------------------------|
|------------------------------|------------------------------------|


   ~~~
   H.             S  S  S  S    S  S  S  S  S  S  S  S  S  S  S  S  Q
|-13------------/22-22-22-22-|-22-22-22-22-22-22-22-22-22-22-22-22-22\----||
|----------------------------|--------------------------------------------||
|----------------------------|--------------------------------------------||
|----------------------------|--------------------------------------------||
|----------------------------|--------------------------------------------||
|----------------------------|--------------------------------------------||
|
|  E  E E E E E   E     E       E     E     E     E     E     E     E  E
|----------------------------|--------------------------------------------||
|----------------------------|--------------------------------------------||
|--5--x-5-x-5-7---x-----9----|--x-----7-----x-----7-----x-----5-----7-----||
|--5--x-5-x-5-7---x-----9----|--x-----7-----x-----7-----x-----5-----7-----||
|--3----3---3-5---------7----|--------5-----------5-----------3-----5-----||
|----------------------------|--------------------------------------------||
|
|  ~~~
|  H.             S  S  S  S    S  S  S  S  S  S  S  S  S  S  S  S  Q
|-10------------/17-17-17-17-|-17-17-17-17-17-17-17-17-17-17-17-17-17\----||
|----------------------------|--------------------------------------------||
|----------------------------|--------------------------------------------||
|----------------------------|--------------------------------------------||
|----------------------------|--------------------------------------------||
|----------------------------|--------------------------------------------||


  Gtr II
  H       +E  +Q        +E    +Q.     E +E      +E  +E      +E
|---------------------------|-----------------------------------|
|-9-------(9)-(9)b11====(9)-|-(9)-----9r(9)b11==(9)r(9)b11==(9)r|
|---------------------------|-----------------------------------|
|---------------------------|-----------------------------------|
|---------------------------|-----------------------------------|
|---------------------------|-----------------------------------|
|
| E E E E  E   E      E  E     E  E E E  E       E   E       E
|-5-----5--5-------------5--|-----7---9s=7-------7---7----------|
|-5-----5--5-------------5--|-----7---9s=7-------7---7----------|
|---------------------------|-----------------------------------|
|---x-x--------x------x-----|--x----x---------------------------|
|-5-x-x-5--5---x------x--5--|--x--7-x-9s=7-------7---9----------|
|---------------------------|--------------------------------0--|


                ~~~~~
  +E  E E  E   +H            +E    +E    Q   E E E E
|-------------------------|---------------------------|
|-(9)p7-------------------|---------------------------|
|-------9-[9]-([9])-------|-([9])-([9])\-------9-9-9--|
|-------------------------|---------------------------|
|-------------------------|---------------------------|
|-------------------------|---------------------------|
|
|  E  E E  E    E   E E E     E     E    E E E E E E
|-----5----5--------7---9s|===7-----7----7------------|
|-----5----5--------7---9s|===7-----7----7-------x----|
|-------------------------|----------------------x-x--|
|-------x-------x-----x---|----------------x-x-x---x--|
|-----5-x--5----x---9-x-9s|===7-----7----7-x-x-x------|
|--0----------------------|---------------------------|


   A  Q    E  E E  E E  E   E  E E  A  E  +E  E  A E E
|-------------------------|----------------------------|
|-12s14---14-14---14---14-|---12-----------------------|
|-------------------------|--------13S11-(11)---11s9---|
|-------------------------|----------------------------|
|-------------------------|----------------------------|
|-------------------------|----------------------------|
|
|     E E  E  E E  E E  E   E  E E     E   E  E    E E
|-----5-------5-5-------5-|----7-------9s==7--7----7---|
|-----5-------5-5-------5-|----7-------9s==7--7----7---|
|-------------------------|----------------------------|
|-------x--x-------x-x----|-x----x---------------------|
|-----5-x--x--5-5--x-x--5-|-x--7-x-----9s==7--7----9---|
|-------------------------|--------------------------0-|


                                           ~~
  S  E.    +Q     +E  E  E E    E  E  E E  Q   Q
|----------------------------|----------------------|
|----------------------------|----------------------|
|-9s11----(11)---(11)-9h11p9-|-11s13s11p9-11--------|
|----------------------------|----------------------|
|----------------------------|----------------------|
|----------------------------|----------------------|
|
| E     E   E  E   E  E  E E    E  E  E E  E E E E
|-------5------5------7----9s|==7--7--7-------------|
|-------5------5------7----9s|==7--7--7--------x----|
|----------------------------|-----------------x-x--|
|-----------x------x-----x---|----------x--x-x---x--|
|-------5---x--5---x--9--x-9s|==7--7--7-x--x-x------|
|-0--------------------------|----------------------|


  Gtr II
  A      +Q    +E      +E  +E  +Q        +E    +Q.      E  +E  E  E E
|--------------------------------------------|------------------------|
|-9pb11==(9)r==(9)b11==(9)-(9)r(9)b11====(9)-|-(9)------9r=(9)---10---|
|--------------------------------------------|------------------------|
|--------------------------------------------|------------------------|
|--------------------------------------------|------------------------|
|--------------------------------------------|------------------------|
|
|         E  E  E       E   E   E      E  E     E  E E  E   E  E  E E
|---------5-------------5---5-------------5--|-----7----9s==7--7--7---|
|---------5-------------5---5-------------5--|-----7----9s==7--7--7---|
|--------------------------------------------|------------------------|
|------------x--x---------------x------x-----|--x----x----------------|
|---------5--x--x-------5---5---x------x--5--|--x--7-x--9s==7--7--9---|
|--------------------------------------------|----------------------0-|
|
| Gtr III
| A      +Q    +E      +E  +E  +Q        +E    +Q.     +E  +E  E  E E
|--------------------------------------------|------------------------|
|-2pb4===(2)r==(2)b4===(2)-(2)r(2)b4=====(2)-|-(2)-----(2)r(2)----3---|
|--------------------------------------------|------------------------|
|--------------------------------------------|------------------------|
|--------------------------------------------|------------------------|
|--------------------------------------------|------------------------|


                        ~~~~~~~~~~~~~~~
   A      +Q     +E  E +H          +Q.     +E   E  E E E
|--------------------------------|------------------------|
|--------------------------------|------------------------|
|-11b13==(11)r==(11)-9-(9)-------|-(9)-----(9)\---/9-9-9--|
|--------------------------------|------------------------|
|--------------------------------|------------------------|
|--------------------------------|------------------------|
|
|          E  E   E  E  E  E E E    E  E E  E   E  E E E
|-------------5------5-----7---9s|==7--7-7----------------|
|-------------5------5-----7---9s|==7--7-7-----------x----|
|--------------------------------|-------------------x-x--|
|-----------------x-----x----x---|----------x---x--x---x--|
|-------------5---x--5--x--9-x-9s|==7--7-7--x---x--x------|
|----------0---------------------|------------------------|
|
|                       ~~~~~~~~~~~~~~~
|  A      +Q     +E  E +H          +Q.     +E   E  E E E
|--------------------------------|------------------------|
|--------------------------------|------------------------|
|--2b4====(2)r===(2)-1-(1)-------|-(1)-----(1)\---/1-1-1--|
|--------------------------------|------------------------|
|--------------------------------|------------------------|
|--------------------------------|------------------------|


   A  Q     E    E  E  E E  E   E  E E  A  E  +Q     E E
|-----------------------------|---------------------16---|
|-12s15----15---15----14---15-|---17---17s19-(19)--------|
|-----------------------------|--------------------------|
|-----------------------------|--------------------------|
|-----------------------------|--------------------------|
|-----------------------------|--------------------------|
|
|     E E   E    E  E  E E  E   E  E E     E   E  E  E E
|-----5----------5--5-------5-|----7-------9s==7--7--7---|
|-----5----------5--5-------5-|----7-------9s==7--7--7---|
|-----------------------------|--------------------------|
|-------x---x----------x-x----|-x----x-------------------|
|-----5-x---x----5--5--x-x--5-|-x--7-x-----9s==7--7--9---|
|-----------------------------|------------------------0-|
|
|  A  Q    +E   +E  E  E E  E   E  E E  A  E  +Q     E E
|-----------------------------|---------------------19---|
|-17s19---(19)-(19)---17---19-|---21---21s22-(22)--------|
|-----------------------------|--------------------------|
|-----------------------------|--------------------------|
|-----------------------------|--------------------------|
|-----------------------------|--------------------------|


   A      +E   +E   E  A      +E   +E   +E   E  A      +E     +E   +E   E  A       +E   +Q     +E    E
|------------------16-----------------------16-------------|-----------16-19pb25==(19)-(19)---(19)r\-----|
|-19b23==(19)r(19)----19b23==(19)-(19)r(19)----19b23==(19)-|-(19)r(19)-----------------------------------|
|----------------------------------------------------------|---------------------------------------------|
|----------------------------------------------------------|---------------------------------------------|
|----------------------------------------------------------|---------------------------------------------|
|----------------------------------------------------------|---------------------------------------------|
|
|          E    E   E          E    E    E   E          E      E    E   E           E    E  E   E    E
|---------------5--------------5---------7--------------9s=|===7----7---7--------------------------------|
|---------------5--------------5---------7--------------9s=|===7----7---7-----------------------x--------|
|----------------------------------------------------------|------------------------------------x----x---|
|-------------------x---------------x--------x-------------|------------------------x----x--x--------x---|
|---------------5---x----------5----x----9---x----------9s=|===7----7---7-----------x----x--x------------|
|----------0-----------------------------------------------|---------------------------------------------|
|
|  A      +E   +E   E  A      +E   +E   +E   E  A      +E     +E   +E   E  A       +E   +Q     +E    E
|------------------19-----------------------19-------------|-----------19-22pb28==(22)-(22)---(22)r\-----|
|-22b26==(22)r(22)----22b26==(22)-(22)r(22)----22b26==(22)-|-(22)r(22)-----------------------------------|
|----------------------------------------------------------|---------------------------------------------|
|----------------------------------------------------------|---------------------------------------------|
|----------------------------------------------------------|---------------------------------------------|
|----------------------------------------------------------|---------------------------------------------|


  Gtrs I, III
                                                                     ~~~
  E E E E E E E E   E E E E E E A E E   E E E E E E E A E   E E E E +Q    Q
|-9p5-5-5-------9p|=5-5-5-------------|-9p5-5-5-----------|--------------------|
|---------9-7p5---|-------9-7p5-----5-|---------9-7p5-----|-----7-9-(9)--------|
|-----------------|-------------7s9---|---------------7s9-|---9----------------|
|-----------------|-------------------|-------------------|--------------------|
|-----------------|-------------------|-------------------|--------------------|
|-----------------|-------------------|-------------------|--------------------|
|
| E E E E E E E E   E E E E E E   E E   E E E E E E E   E   E E E E  E  E E E
|-5-----5-5-----5-|---7---9s7-7---7---|---5---5---7-----9s|=7-7-7--------------|
|-5-----5-5-----5-|---7---9s7-7---7---|---5---5---7-----9s|=7-7-7---------x----|
|-----------------|-------------------|-------------------|---------------x-x--|
|---x-x-----x-x---|-x---x-------------|-----x---x---x-----|-------x--x--x---x--|
|-5-x-x-5-5-x-x-5-|-x-7-x-9s7-7---9---|---5-x-5-x-9-x---9s|=7-7-7-x--x--x------|
|-----------------|-----------------0-|-0-----------------|--------------------|


  E E E E E E E E   E E E E E E A E E
|-9p5-5-5-------9p|=5-5-5-------------|
|---------9-7p5---|-------9-7p5-----5-|
|-----------------|-------------7s9---|
|-----------------|-------------------|
|-----------------|-------------------|
|-----------------|-------------------|
|
| E E E E E E E E   E E E E E E   E E
|-5-----5-5-----5-|---7---9s7-7---7---|
|-5-----5-5-----5-|---7---9s7-7---7---|
|-----------------|-------------------|
|---x-x-----x-x---|-x---x-------------|
|-5-x-x-5-5-x-x-5-|-x-7-x-9s7-7---9---|
|-----------------|-----------------0-|


                               ~~~
  E E E E E E E A E   E E E E +Q    Q
|-9p5-5-5-----------|--------------------||
|---------9-7p5-----|-----7-9-(9)--------||
|---------------7s9-|---9----------------||
|-------------------|--------------------||
|-------------------|--------------------||
|-------------------|--------------------||
|
| E E E E E E E   E   E E E E  E  E E E
|---5---5---7-----9s|=7-7-7--------------||
|---5---5---7-----9s|=7-7-7---------x----||
|-------------------|---------------x-x--||
|-----x---x---x-----|-------x--x--x---x--||
|---5-x-5-x-9-x---9s|=7-7-7-x--x--x------||
|-0-----------------|--------------------||


   E E E E  E  E E  E   E E E  E  E E  A  E  E
|-13p8-8-8---------13p|=8-8-8------------------|
|----------12-10-8----|-------12-10-8----------|
|---------------------|---------------10s12-12-|
|---------------------|------------------------|
|---------------------|------------------------|
|---------------------|------------------------|
|
|  E E E E  E  E E  E   E E E  E  E E     E  E
|---------------------|------------------------|
|---------------------|------------------------|
|---------------------|------------------------|
|--3---5-------3----5-|---7----5----3-----5----|
|--3---5-------3----5-|---7----5----3-----5----|
|--1---3-------1----3-|---5----3----1-----3----|


                                        ~~~~
   E E E E  E  E E  A  E   E  E  E  E  +Q    Q
|-13p8-8-8---------------|------------------------|
|----------12-10-8-------|------10-12-(12)--------|
|------------------10s12-|---12-------------------|
|------------------------|------------------------|
|------------------------|------------------------|
|------------------------|------------------------|
|
|  E E E E  E  E E     E   E  E  E  E   E  E E E
|------------------------|------------------------|
|------------------------|------------------------|
|------------------------|------------------------|
|--3---5----3--5-------3-|----5-----5------3-5----|
|--3---5----3--5-------3-|----5-----5------3-5----|
|--1---3----1--3-------1-|----3-----3------1-3----|


   E E E E  E  E E  E   E E E  E  E E  A  E  E
|-13p8-8-8---------13p|=8-8-8------------------|
|----------12-10-8----|-------12-10-8----------|
|---------------------|---------------10s12-12-|
|---------------------|------------------------|
|---------------------|------------------------|
|---------------------|------------------------|
|
|  E E E E  E  E E  E   E E E  E  E E     E  E
|---------------------|------------------------|
|---------------------|------------------------|
|---------------------|------------------------|
|--3---5-------3----5-|---7----5----3-----5----|
|--3---5-------3----5-|---7----5----3-----5----|
|--1---3-------1----3-|---5----3----1-----3----|


                                        ~~~~
   E E E E  E  E E  A  E   E  E  E  E  +Q    Q
|-13p8-8-8---------------|------------------------||
|----------12-10-8-------|------10-12-(12)--------||
|------------------10s12-|---12-------------------||
|------------------------|------------------------||
|------------------------|------------------------||
|------------------------|------------------------||
|
|  E E E E  E  E E     E   E  E  E  E   E  E E E
|------------------------|------------------------||
|------------------------|------------------------||
|------------------------|------------------------||
|--3---5----3--5-------3-|----5-----5------3-5----||
|--3---5----3--5-------3-|----5-----5------3-5----||
|--1---3----1--3-------1-|----3-----3------1-3----||


   E  E  E  E  E  E  E  E    E   E  E  E  E  E  A  E  E
|-24p19-19-19----------24p|=19--19-19-------------------|
|-------------23-21-19----|-----------23-21-19-------19-|
|-------------------------|--------------------21s23----|
|-------------------------|-----------------------------|
|-------------------------|-----------------------------|
|-------------------------|-----------------------------|
|
|  W                        +W
|-!0----------------------|-(0)-------------------------|
|-!0----------------------|-(0)-------------------------|
|-!1----------------------|-(1)-------------------------|
|-!4----------------------|-(4)-------------------------|
|-!2----------------------|-(2)-------------------------|
|-!0----------------------|-(0)-------------------------|


                                               ~~~~
   E   E  E  E  E  E  E  A  E    E   E  E  E  +Q   Q
|-24p=19-19-19----------------|-----------------------|
|--------------23-21-19-------|--------21-23-(23)-----|
|-----------------------21s23-|-----23----------------|
|-----------------------------|-----------------------|
|-----------------------------|-----------------------|
|-----------------------------|-----------------------|
|
| +W                            +W
|-(0)-------------------------|-(0)-------------------|
|-(0)-------------------------|-(0)-------------------|
|-(1)-------------------------|-(1)-------------------|
|-(4)-------------------------|-(4)-------------------|
|-(2)-------------------------|-(2)-------------------|
|-(0)-------------------------|-(0)-------------------|


   E  E  E  E  E  E  E  E    E   E  E  E  E  E  A  E  E
|-24p19-19-19----------24p|=19--19-19-------------------|
|-------------23-21-19----|-----------23-21-19-------19-|
|-------------------------|--------------------21s23----|
|-------------------------|-----------------------------|
|-------------------------|-----------------------------|
|-------------------------|-----------------------------|
|
|  W                        +W
|-!0----------------------|-(0)-------------------------|
|-!0----------------------|-(0)-------------------------|
|-!1----------------------|-(1)-------------------------|
|-!4----------------------|-(4)-------------------------|
|-!2----------------------|-(2)-------------------------|
|-!0----------------------|-(0)-------------------------|


                                               ~~~~
   E   E  E  E  E  E  E  A  E    E   E  E  E  +Q   Q
|-24p=19-19-19----------------|-----------------------||
|--------------23-21-19-------|--------21-23-(23)-----||
|-----------------------21s23-|-----23----------------||
|-----------------------------|-----------------------||
|-----------------------------|-----------------------||
|-----------------------------|-----------------------||
|
| +W                            +W
|-(0)-------------------------|-(0)-------------------||
|-(0)-------------------------|-(0)-------------------||
|-(1)-------------------------|-(1)-------------------||
|-(4)-------------------------|-(4)-------------------||
|-(2)-------------------------|-(2)-------------------||
|-(0)-------------------------|-(0)-------------------||


   E  E  E  E  E  E  E  E    E  E  E  E  E  E  A  E  E
|-25p20-20-20----------25p|=20-20-20-------------------|
|-------------24-22-20----|----------24-22-20-------20-|
|-------------------------|-------------------22s24----|
|-------------------------|----------------------------|
|-------------------------|----------------------------|
|-------------------------|----------------------------|
|
|  E  E  E  E  E  E  E  E    E  E  E  E  E  E     E  E
|-------------------------|----------------------------|
|-------------------------|----------------------------|
|--5--x--5--x--x--5--x--7-|--x--9--x--7--x--5-----7--x-|
|--5--x--5--x--x--5--x--7-|--x--9--x--7--x--5-----7--x-|
|--3-----3--------3-----5-|-----7-----5-----3-----5----|
|-------------------------|----------------------------|


                                            ~~~~
   E  E  E  E  E  E  E  A  E   E  E  E  E  +Q.     E
|-25p20-20-20----------------|-----------------------|
|-------------24-22-20-------|------20-24-(24)-------|
|----------------------22s24-|---24------------------|
|----------------------------|-----------------------|
|----------------------------|-----------------------|
|----------------------------|-----------------------|
|
|  E  E  E  E  E  E  E     E   E  E  E  E   E  E E E
|----------------------------|-----------------------|
|----------------------------|-----------------------|
|--5--x--5--x--5--7--x-----9-|-x--7--x--7---x--5-7---|
|--5--x--5--x--5--7--x-----9-|-x--7--x--7---x--5-7---|
|--3-----3-----3--5--------7-|----5-----5------3-5---|
|----------------------------|-----------------------|


   E  E  E  E  E  E  E  E    E  E  E  E  E  E  A  E  E
|-25p20-20-20----------25p|=20-20-20-------------------|
|-------------24-22-20----|----------24-22-20-------20-|
|-------------------------|-------------------22s24----|
|-------------------------|----------------------------|
|-------------------------|----------------------------|
|-------------------------|----------------------------|
|
|  E  E  E  E  E  E  E  E    E  E  E  E  E  E     E  E
|-------------------------|----------------------------|
|-------------------------|----------------------------|
|--5--x--5--x--x--5--x--7-|--x--9--x--7--x--5-----7--x-|
|--5--x--5--x--x--5--x--7-|--x--9--x--7--x--5-----7--x-|
|--3-----3--------3-----5-|-----7-----5-----3-----5----|
|-------------------------|----------------------------|


   E  E  E  E  E  E  E  A  E    +H         +Q     Q
|-25p20-20-20----------------|------------------------|
|-------------24-22-20-------|------------------------|
|----------------------22s24-|-(24)-------(24)\-------|
|----------------------------|------------------------|
|----------------------------|------------------------|
|----------------------------|------------------------|
|
|  E  E  E  E  E  E  E     E     E  E E E   E   E E E
|----------------------------|------------------------|
|----------------------------|------------------------|
|--5--x--5--x--5--7--x-----9-|---x--7-x-7---x---5-7---|
|--5--x--5--x--5--7--x-----9-|---x--7-x-7---x---5-7---|
|--3-----3-----3--5--------7-|------5---5-------3-5---|
|----------------------------|------------------------|


   H        +Q.      +E         +E   Q        E     +Q      +Q
|----------------------------|---------------------------------------|
|-21-------(21)-----(21)b23==|=(21)-21pb23---21b23-(21)r---(21)b23r==|
|----------------------------|---------------------------------------|
|----------------------------|---------------------------------------|
|----------------------------|---------------------------------------|
|----------------------------|---------------------------------------|
|
|  E E E E   E  E E   E          E   E     E  E      E   E   E     E
|--5-----5---5--------5------|-------7--------9s=====7---7---7-------|
|--5-----5---5--------5------|-------7--------9s=====7---7---7-------|
|----------------------------|---------------------------------------|
|----x-x--------x-x----------|---x---------x-------------------------|
|--5-x-x-5---5--x-x---5------|---x---7-----x--9s=====7---7---9-------|
|----------------------------|-------------------------------------0-|


                  ~~~~~~~~~~~~~~~~
   +E   E  E  E  +H           +H.           Q
|--------------------------|---------------------|
|-(21)p19------------------|---------------------|
|---------21-21-(21)-------|-(21)----------------|
|--------------------------|---------------------|
|--------------------------|---------------------|
|--------------------------|---------------------|
|
|   E   E  E  E   E  E E E     E  E E E E E E E
|-------5-----5------7---9s|===7--7-7------------|
|-------5-----5------7---9s|===7--7-7-------x----|
|--------------------------|----------------x-x--|
|----------x------x----x---|----------x-x-x---x--|
|-------5--x--5---x--9-x-9s|===7--7-7-x-x-x------|
|---0----------------------|---------------------|


   H        +Q.      +E         +Q.      E      +Q      +Q
|-24-------(24)-----(24)b28==|=(24)-----24pb28-(24)r---(24)b28r==|
|----------------------------|-----------------------------------|
|----------------------------|-----------------------------------|
|----------------------------|-----------------------------------|
|----------------------------|-----------------------------------|
|----------------------------|-----------------------------------|
|
|  E E E E   E  E E   E          E  E E  E       E   E   E     E
|--5-----5---5--------5------|------7----9s======7---7---7-------|
|--5-----5---5--------5------|------7----9s======7---7---7-------|
|----------------------------|-----------------------------------|
|----x-x--------x-x----------|---x----x--------------------------|
|--5-x-x-5---5--x-x---5------|---x--7-x--9s======7---7---9-------|
|----------------------------|---------------------------------0-|


                             ~~~
   +E   E  E  E E  E E  E    H.           Q
|-(24)-21-21-22---21---22-|-22-----------------||
|-------------------------|--------------------||
|-------------------------|--------------------||
|-------------------------|--------------------||
|-------------------------|--------------------||
|-------------------------|--------------------||
|
|   E   E  E  E E  E E  E    E  E E E E E E E
|-------5-----5----7----9s|==7--7-7------------||
|-------5-----5----7----9s|==7--7-7-------7----||
|-------------------------|--------------------||
|----------x----x----x----|---------x-x-x-9----||
|-------5--x--5-x--9-x--9s|==7--7-7-x-x-x-7----||
|---0---------------------|--------------------||


 3/4        4/4
  H    Q     W            Q   a  Q   Q.    E
|---------||----------:----------------------:
|---------||----------:----------------------:
|---------||----------:-/11--11S13--15----15s:
|---------||----------:----------------------:
|---------||----------:--/9---9S11--13----13s:
|---------||----------:----------------------:


                               ~
   |-----5-----|
   S  S  S  S  S  E  E  a  E.S Q    S E. a  E E +E  S S  Q
|---------------------------------:----------------------------*|
|---------------------------------:----------------------------*|
|-16s18s16s18s16-15S13-13S15S9-9--:-8S9--9S11S6-(6)------------*|
|---------------------------------:-----------------6S4-(4)----*|
|-14s16s14s16s14-13S11-11S13S7-7--:-3S7--7S=9S4-(4)------------*|
|---------------------------------:----------------------2-----*|




--------------------------------------------------------------------------------


Duration Legend
---------------
W - whole; H - half; Q - quarter; E - 8th; S - 16th; T - 32nd; X - 64th; a - acciaccatura
+ - note tied to previous; . - note dotted; .. - note double dotted
Uncapitalized letters represent notes that are staccato (1/2 duration)
Irregular groupings are notated above the duration line
Duration letters will always appear directly above the note/fret number it represents the
duration for.  Duration letters with no fret number below them represent rests.  Multi-
bar rests are notated in the form Wxn, where n is the number of bars to rest for.  Low
melody durations appear below the staff

Tablature Legend
----------------
 h   - hammer-on
 p   - pull-off
 b   - bend
 pb  - pre-bend
 r   - bend release (if no number after the r, then release immediately)
 /\  - slide into or out of (from/to "nowhere")
 s   - legato slide
 S   - shift slide
 - natural harmonic
[n]  - artificial harmonic
n(n) - tapped harmonic
 ~   - vibrato
 tr  - trill
 T   - tap
 TP  - trem. picking
 PM  - palm muting
\n/  - tremolo bar dip; n = amount to dip
 \n  - tremolo bar down
 n/  - tremolo bar up
/n\  - tremolo bar inverted dip
 =   - hold bend; also acts as connecting device for hammers/pulls
 <> - volume swell (louder/softer)
 x   - on rhythm slash represents muted slash
 o   - on rhythm slash represents single note slash

Misc Legend
-----------
 |  - bar
||  - double bar
||o - repeat start
o|| - repeat end
*|  - double bar (ending)
 :  - bar (freetime)
 $  - Segno
 &  - Coda
Tempo markers -  = BPM(8/16=s8/s16), where s8 = swing 8ths, s16 = swing 16ths



--------------------------------------------------------------------------------
-email me at gutz_low@yahoo.com
Comments