Steve Morse Band - Wolf Song Chords & Tabs

 

Wolf Song Chords & Tabs

Steve Morse Band Chords & Tabs

Version: 1 Type: Tab 0 ratings
1 star 2 stars 3 stars 4 stars 5 stars
comments

Wolf Song Tab

#----------------------------------PLEASE NOTE--------------------------------#
#This file is the author's own work and represents their interpretation of the#
#song. You may only use this file for private study, scholarship, or research.#
#-----------------------------------------------------------------------------#

Date: Fri, 24 Apr 1998 23:57:43 -0300
Subject: m/morse_steve/wolf_song.tab
From: godsize1@cobweb.com.au


Wolf Song - Steve Morse Band

http://members.tripod.com/~godsize1/morse.htm

This song has up to 5 layered guitar parts at any given time.
The part here is the main melody/ solo guitar.
If someone especially wants the other parts I will tab them out when I
have the time.

E|-7(19)r-5(17)7~(19)------|-5~(17)--------------|--------------------------------|
B|------------------8b9(20)|------5(17)6~(18)----|-5~(17)6(18)--------------------|
G|-------------------------|----------------7(19)|-----------5(17)-5b7--r-----4---|
D|-------------------------|---------------------|-----------------------7(19)----|
A|-------------------------|---------------------|--------------------------------|
E|-------------------------|---------------------|--------------------------------|

E|----|-----------------|------7(19)-5(17)7~(19)------|-5~(17)--------------|----|
B|----|-----------------|----------------------8b9(20)|------5(17)6~(18)----|-5~-|
G|(16)|-----------------|-----------------------------|----------------7(19)|----|
D|----|-----------------|-----------------------------|---------------------|----|
A|----|-----------------|-----------------------------|---------------------|----|
E|----|-----------------|-----------------------------|---------------------|----|

E|------------------8(20)|--------------------------||---------------------|----|
B|(17)-6(18)8b10(20)-----|-8~(20)~------------------||---------------------|----|
G|-----------------------|--------------------------||---------------7-7h9-|-7--|h
D|-----------------------|--------------------------||-------7~--7h9-------|----|
A|-----------------------|--------------------------||---------------------|----|
E|-----------------------|--------------------------||---------------------|----|

E|-------------------|----------------------|-------------------------|-----------|
B|-------------------|-----------8b10--r----|-------------------------|-----------|
G|-9p7~--------7h9p7-|----7-9-10---------10~|-------------------------|------9b11-|
D|-------------------|-10-------------------|-------------------------|-----------|
A|-------------------|----------------------|-------------------------|-----------|
E|-------------------|----------------------|-------------------------|-----------|

E|-----------------|------9-10~|-8p6--8p6\5-----5h6-|--5-----5----|------------|
B|--8-10---10b12--r|-----------|-------------6~-----|----8~-------|------------|
G|-------7---------|-----------|--------------------|-----------5~|------------|
D|-----------------|-----------|--------------------|-------------|------------|
A|-----------------|-----------|--------------------|-------------|------------|
E|-----------------|-----------|--------------------|-------------|------------|

E|---|-----5~-----3h5p3---5b6-|--5~--3---5~|-------------3h5p3------|----------|
B|---|------------------6-----|------------|-------------------6-5~-|----------|
G|---|------------------------|------------|------------------------|----------|
D|---|------------------------|------------|------------------------|----------|
A|---|------------------------|------------|------------------------|----------|
E|---|------------------------|------------|------------------------|----------|

E|-------|-----------------------------|--------------|------------------------|
B|-------|-------------------------6b8-|-6------------|----------------5-6-----|
G|---5-7-|-------7--r----------5-7-----|----7b9--r----|-5~-----------7---------|
D|-------|-----------------------------|--------------|------------------------|
A|-------|-----------------------------|--------------|------------------------|
E|-------|-----------------------------|--------------|------------------------|

E|-----|---------------5--6---|-8---8-7b8~----|-----6-8p6p5-----|---8---7b8~----|
B|-----|------------8---------|---------------|-------------8-6-|---------------|
G|-----|----------------------|---5-----------|---5-------------|-5---5---------|
D|-----|----------------------|---------------|-----------------|---------------|
A|-----|----------------------|---------------|-----------------|---------------|
E|-----|----------------------|---------------|-----------------|---------------|

E-|---6-8p6p5-----||---------------------|-----------|---------------------|----|
B-|-----------8-6-||---------5~----------|-6b8--6~-5-|-3h-5p3-1--1h3p1-----|----|
G-|-5-------------||---------------------|-----------|-----------------2-4~|----|
D-|---------------||---------------------|-----------|---------------------|----|
A-|---------------||---------------------|-----------|---------------------|----|
E-|---------------||---------------------|-----------|---------------------|----|

E|-----------------|---------------------------8---|-----------------12-|-13~--|
B|-----------------|--------------8b10--10b12------|-12b14~---13b15-----|------|
G|-----------------|-------------------------------|--------------------|------|
D|-----------------|-------------------------------|--------------------|------|
A|-----------------|-------------------------------|--------------------|------|
E|-----------------|-------------------------------|--------------------|------|

E|------13b15-|-12~--------------------------|------------------------------------|
B|------------|------------------------------|--------------------------13-15b17~-|
G|------------|------------------------------|--------------------12-14-----------|
D|------------|------------------------------|-----------------14-----------------|
A|------------|------------------------------|-----------12-15--------------------|
E|------------|------------------------------|------------------------------------|

     Guitar Solo
[ Tab from: http://www.guitartabs.cc/tabs/s/steve_morse_band/wolf_song_tab.html ]
E|-----|--12b13-----------------|--10-----------------------------------|-------|
B|-----|------------------11b13-|-----13-11-10--------------------------|-------|
G|-----|---------10\9-----------|--------------12b14--r-p10----------10-|-12b14-|
D|-----|--------------12~-------|---------------------------14-10-14----|-------|
A|-----|------------------------|---------------------------------------|-------|
E|-----|------------------------|---------------------------------------|-------|

E|---------------------------------------|------------------|-------------------|
B|---------------------------------------|----/15-17----17--|-17b18--r15----15~-|
G|---------------------14-15-16-17-16b18-|-----------14-----|------------14-----|
D|---------14-15-16-17-------------------|------------------|-------------------|
A|---15-17-------------------------------|------------------|-------------------|
E|---------------------------------------|------------------|-------------------|

E|----------|-16-------17-15-------------------------|--------------------------|
B|----------|-------------------18----17----15h17p15-|--------------------------|
G|----14/15-|----15-17-------------------------------|----------------17~-------|
D|----------|----------------17----17----17----------|-----------------------14-|
A|----------|----------------------------------------|--------------------------|
E|----------|----------------------------------------|--------------------------|

E|----------------------------------|-----------17-18--|-20----20-19b20~--|----|
B|----------------17-18-19-20-20b22-|-------/20--------|------------------|----|
G|-------16-17-19-------------------|------------------|----17------------|-17-|
D|-15-17----------------------------|------------------|------------------|----|
A|----------------------------------|------------------|------------------|----|
E|----------------------------------|------------------|------------------|----|

E|-18-20p18p17-------|------------------18-20-18b20~|-----20b22--20-18-17h18p17-|
B|-------------20-18-|----------20b22---------------|---------------------------|
G|-------------------|------------------------------|--17-----------------------|
D|-------------------|------------------------------|---------------------------|
A|-------------------|------------------------------|---------------------------|
E|-------------------|------------------------------|---------------------------|

E|-------|------------|---------------|-------------------------------|---------|
B|-20-18-|-17~--------|-18b20--r--17--|-15h-17p15-13-13h15p13\10--12~-|----8b10-|
G|-------|------------|---------------|-------------------------------|---------|
D|-------|------------|---------------|-------------------------------|---------|
A|-------|------------|---------------|-------------------------------|---------|
E|-------|------------|---------------|-------------------------------|---------|

E|----------8-|------------------12-|-13~-----13b15-|-12~----------|-------------|
B|---10b12----|-12b14-----13b15-----|---------------|--------------|-------------|
G|------------|---------------------|---------------|--------------|----------12-|
D|------------|---------------------|---------------|--------------|-------13----|
A|------------|---------------------|---------------|--------------|----13-------|
E|------------|---------------------|---------------|--------------|-11----------|

E|----11-15-11-------------------|------------------|---------------|-----------|
B|-11----------11----------------|----8~--7---8~----|---8~--6---6~--|-10h11--10-|
G|----------------12-----------2-|----3~--2---3~----|-3h5~--3---2~--|---------5-|
D|-------------------13----------|------------------|---------------|-----------|
A|----------------------13-------|------------------|---------------|-----------|
E|-------------------------11\---|------------------|---------------|-----------|

E|---------|-----------------------------|-----6~--5---6~-|-6/8~--6------8p6\5~-|
B|---11~---|-11/13~-11--13p11\10-11p10\8-|-----8~--7---8~-|-8/9~--8h9p8------6~-|
G|---------|-----------------------------|----------------|---------------------|
D|---------|-----------------------------|----------------|---------------------|
A|---------|-----------------------------|----------------|---------------------|
E|---------|-----------------------------|----------------|---------------------|

E|----|-5/10--11--11h13--10~-|-13b15~--13-----------10-|-----------11~---------|
B|----|-------11-------------|-11------11--------------|-----11p10\-8~------9~-|
G|----|------------------12~-|------------13p11\10~----|-----------------------|
D|----|----------------------|-------------------------|-----------------------|
A|----|----------------------|-------------------------|-----------------------|
E|----|----------------------|-------------------------|-----------------------|

E|------|-13/15~-----------15/17-|-17~---------------|------------------|--------|
B|--11--|-11----------13~--------|-------------------|------------------|--------|
G|------|------------------------|-------------7-7h9-|-7h9p7~----7h9p7--|--------|
D|------|------------------------|-------7-7h9-------|------------------|-----10-|
A|------|------------------------|-------------------|------------------|--------|
E|------|------------------------|-------------------|------------------|--------|

E|-------------------|-----------|-------------------------------9-10~|--8p6--8--|p
B|--------8b10--r----|-----------|--------8-10---10b12--r-------------|----------|
G|-7-9-10---------10~|-----------|-9b11--------7----------------------|----------|
D|-------------------|-----------|------------------------------------|----------|
A|-------------------|-----------|------------------------------------|----------|
E|-------------------|-----------|------------------------------------|----------|

E|-6\5-----5h6-|------5-----5-----------|
B|------6~-----|--------8~--------------|
G|-------------|---------------5~-------|
D|-------------|------------------------|
A|-------------|------------------------|
E|-------------|------------------------|
Comments