Steve Miller Band - True Fine Love Chords & Tabs

 

True Fine Love Chords & Tabs

Steve Miller Band Chords & Tabs

Version: 1 Type: Tab 0 ratings
1 star 2 stars 3 stars 4 stars 5 stars
comments

True Fine Love Tab

   
Artist: Steve Miller Band
Song:   True Fine Love
Album:  Greatest Hits


Tabbed by: Bobby NesSmith


Standard Tuning
EADGBE


Intro:

E|-------------|-------------|----------------------------------|
B|-------------|-------------|----------------------------------|
G|-------------|-------------|-------------8-8-8\7-8\7-10-10-10-|
D|-8--8-5--5-5-|-8--8-5--5-5-|-8--8-5--5-5-8-8-8\7-8\7-10-10-10-|
A|-8--8-5--5-5-|-8--8-5--5-5-|-8--8-5--5-5-6-6-6\5-6\5--8--8--8-|
E|-6--6-3--3-3-|-6--6-3--3-3-|-6--6-3--3-3----------------------|

Verse:

E|-------------|
B|-------------|
G|-------------|
D|-8--8-5--5-5-|  Repeat throughout
A|-8--8-5--5-5-|
E|-6--6-3--3-3-|


Chorus:

E|-----------------|-----------------|-----------------|-----------------|
B|-----------------|-----------------|-----------------|-----------------|
G|-----------------|-----------------|-----------------|-5-5-5-5-5-5-5-5-|
D|-8-8-8-8-8-8-8-8-|-3-3-3-3-3-3-3-3-|-5-5-5-5-5-5-5-5-|-5-5-5-5-5-5-5-5-|
A|-8-8-8-8-8-8-8-8-|-3-3-3-3-3-3-3-3-|-5-5-5-5-5-5-5-5-|-3-3-3-3-3-3-3-3-|
E|-6-6-6-6-6-6-6-6-|-1-1-1-1-1-1-1-1-|-3-3-3-3-3-3-3-3-|-----------------|


Solo:
[ Tab from: http://www.guitartabs.cc/tabs/s/steve_miller_band/true_fine_love_tab.html ]
E|----------------------------------------------|------------------------------------------------|
B|----------------------------------------------|------------------------------------------------|
G|---0-3-5-3-7--5-3---3-5-3-7--5-3---3--------3-|---0-3-5-3-7--5-3---3-5-3-7--5-3------------3---|
D|-5----------------5--------------5----5-3-5---|-5----------------5--------------5-5--5-3-5---5-|
A|----------------------------------------------|------------------------------------------------|
E|----------------------------------------------|------------------------------------------------|

E|-------------------------------------------------------------------------|
B|--------------------6-8-6----------10-12-10----10--------10-12-10----10--|
G|-----3-5-3---3--6-7-------7--10-11----------11-----10-11----------11-----|
D|-3-5-------5-------------------------------------------------------------|
A|-------------------------------------------------------------------------|
E|-------------------------------------------------------------------------|

E|------------------------------------------------------------------------------|
B|-------10-15-15-15b-15-13-13-13-13-13-15-15-15-15b-15-11-11-11-11-13-11-13-11-|
G|-10-11------------------------------------------------------------------------|
D|------------------------------------------------------------------------------|
A|------------------------------------------------------------------------------|
E|------------------------------------------------------------------------------|

E|------------------------------------|
B|-15-15-15b-15-13-13-13-13-14b-14-11-|
G|------------------------------------|
D|------------------------------------|
A|------------------------------------|
E|------------------------------------|
Comments