Steve Miller Band - The Joker Chords & Tabs

 

The Joker Chords & Tabs

Steve Miller Band Chords & Tabs

Version: 6 Type: Bass Tab 0 ratings
1 star 2 stars 3 stars 4 stars 5 stars
comments

The Joker Bass Tab

   
VERSE:

G-----------------------------------
D-------------0---------------------
A-------0-1-1---3-3---0-1-1-1-0-----     play 8x
E-1-1-3-------------3-----------3---

RIFF A:                         RIFF B:
[ Tab from: http://www.guitartabs.cc/tabs/s/steve_miller_band/the_joker_btab_ver_6.html ]
G-------------                 G-----------
D-------------                 D-----------
A-----0h3--1-1  play 3x then   A-333311111-
E-1-1---------                 E-----------
play Riff A once again but end it with Riff C instead of Riff B

RIFF C:

G------------
D------------
A------------
E-33333333/1-

play the verse riff again
play Riff A and B 3x
play Riff A with Riff C
play verse riff
 
Well thats the whole song.  Pretty easy.  Listen to the song to get all of the
timing correct.  Have fun!
Comments