Steve Miller Band - Fly Like An Eagle Chords & Tabs

 

Fly Like An Eagle Chords & Tabs

Steve Miller Band Chords & Tabs

Version: 3 Type: Tab 0 ratings
1 star 2 stars 3 stars 4 stars 5 stars
comments

Fly Like An Eagle Tab

This is a steve miller band song with a cool intro, it might take you
a while to get th hang of it.
[ Tab from: http://www.guitartabs.cc/tabs/s/steve_miller_band/fly_like_an_eagle_tab_ver_3.html ]
-----------------------------------------------------------------|
---7---9-------------------7---9-----------7---9-----------------|
-----------7---5---5---5-----------7---5-----------7---5---5---5-|
-----------7---5---5---5-----------7---5-----------7---5---5---5-|
-----------------------------------------------------------------|
-----------------------------------------------------------------|


----------------------------------------------------------------|
---7---9--------------------------------------------------------|
-----------5----------------------------------------------------|
-----------5----------------------------------------------------|
----------------------------------------------------------------|
----------------------------------------------------------------|

I think he does the whole thing twice.Enjoy!
Comments