Steve Miller - Jet Airliner Chords & Tabs

 

Jet Airliner Chords & Tabs

Steve Miller Chords & Tabs

Version: 1 Type: Tab 0 ratings
1 star 2 stars 3 stars 4 stars 5 stars
comments

Jet Airliner Tab

   
Artist: Steve Miller Band
Song: Jet Airliner
Tabbed by: John Leadman


Two guitars arr. for 1
|---------------------------|
|---------------------------|
|------5-3-5-3-2h3p2p0------|
|---------------------------|
|-1/3-----------------------|
|---------------------------|

Verse and chorus is these chords
someone please embellish on this!
|-1----------|
|-1--5--3----|
|-2--5--3----|
|-3--5--3----|
|-3--3--1----|
|-1----------|

bridge parts
go:
 C F C F C Bb F

Another Version:


Main Riff:
[ Tab from: http://www.guitartabs.cc/tabs/s/steve_miller/jet_airliner_tab.html ]
Guitar 1:
|----------------------|
|----------------------|
|----------------------|
|-8-10-8-10--8---------|
|--------------10p8----|
|-------------------11-|

Guitar 2:

 Bb  C

|-6--8------------------|
|-6--8------------------|
|-7--9------------------|
|-8-10------------------|
|-8-10------------------|
|-6--8------------------|

The one guitar version is to replace the 1st to notes in Gtr 1's Riff
for Gtr 2's chords.

Verse:

C F C Bb F C F Bb C F Bb

Chorus:

Bb F

Chords:

C:8 10 10 9 8 8

F:8 8 10 10 10 8

Bb:688766
Comments