Steve Likes Korn - Song Chords & Tabs

 

Song Chords & Tabs

Steve Likes Korn Chords & Tabs

Version: 2 Type: Tab 2 ratings
1 star 2 stars 3 stars 4 stars 5 stars
comments

Song Tab

   
A heavy song I wrote. Sounds better played really fast.
[ Tab from: http://www.guitartabs.cc/tabs/s/steve_likes_korn/song_tab_ver_2.html ]
Intro: x1 (distortion)
E-------------------------------
B-------------------------------
G-------------------------------
D-------------------------------
A-0-0-0---0-0-0---0-0-0---0-0-0-
D-0-0-0---0-0-0---0-0-0---0-0-0-
Intro: x1 (distortion)
E---------------------------------------------
B---------------------------------------------
G---------------------------------------------
D---------------------------------------------
A---------------------------------------------
D-0-3-0-2-0-3-0-2-0-3-3-0-3-0-2-0-3-0-2-0-2-2-
Intro: x1 (distortion)
E---------------------------------------------
B---------------------------------------------
G---------------------------------------------
D---------------------------------------------
A-----------------------------------------2-2-
D-0-3-0-2-0-3-0-2-0-3-3-0-3-0-2-0-3-0-2-0-2-2-
Verse: x4 (distortion)
E---------------------------------------------
B---------------------------------------------
G---------------------------------------------
D---------------------------------------------
A-0-3-0-2-0-3-0-2-0-3-3-0-3-0-2-0-3-0-2-0-2-2-
D-0-3-0-2-0-3-0-2-0-3-3-0-3-0-2-0-3-0-2-0-2-2-
Chorus: x4 (distortion)
E------------------------------------------------
B------------------------------------------------
G------------------------------------------------
D------------------------------------------------
A-3-3--3-3-3--0-0--0-0-0--5-5--5-5-5--2-2--2-2-2-
D-3-3--3-3-3--0-0--0-0-0--5-5--5-5-5--2-2--2-2-2-
Verse: x4 (distortion)
E---------------------------------------------
B---------------------------------------------
G---------------------------------------------
D---------------------------------------------
A-0-3-0-2-0-3-0-2-0-3-3-0-3-0-2-0-3-0-2-0-2-2-
D-0-3-0-2-0-3-0-2-0-3-3-0-3-0-2-0-3-0-2-0-2-2-
Chorus: x4 (distortion)
E------------------------------------------------
B------------------------------------------------
G------------------------------------------------
D------------------------------------------------
A-3-3--3-3-3--0-0--0-0-0--5-5--5-5-5--2-2--2-2-2-
D-3-3--3-3-3--0-0--0-0-0--5-5--5-5-5--2-2--2-2-2-
Interlude: x4 (distortion)
E--------------------------------------
B--------------------------------------
G--------------------------------------
D--------------------------------------
A-0-5-0-4-0-3-0-2-0--0-5-0-4-0-3-0-2-0-
D-0-5-0-4-0-3-0-2-0--0-5-0-4-0-3-0-2-0-
Interlude: x4 (distortion)
E-------------------
B-------------------
G-------------------
D-------------------
A-0-1-0-1-0-1-0-1-0-
D-0-1-0-1-0-1-0-1-0-
Verse: x4 (distortion)
E---------------------------------------------
B---------------------------------------------
G---------------------------------------------
D---------------------------------------------
A-0-3-0-2-0-3-0-2-0-3-3-0-3-0-2-0-3-0-2-0-2-2-
D-0-3-0-2-0-3-0-2-0-3-3-0-3-0-2-0-3-0-2-0-2-2-
Chorus: x4 (distortion)
E------------------------------------------------
B------------------------------------------------
G------------------------------------------------
D------------------------------------------------
A-3-3--3-3-3--0-0--0-0-0--5-5--5-5-5--2-2--2-2-2-
D-3-3--3-3-3--0-0--0-0-0--5-5--5-5-5--2-2--2-2-2-
Outro: x1 (distortion)
E-----------------------
B-----------------------
G-----------------------
D-----------------------
A-0-3-0-2-0-3-0-2-0-3-3-
D-0-3-0-2-0-3-0-2-0-3-3-

Any questions or comments email me at steve_likes_korn@hotmail.com.


Comments