Steve Harley - Make Me Smile Chords & Tabs

 

Make Me Smile Chords & Tabs

Steve Harley Chords & Tabs

Version: 2 Type: Tab 0 ratings
1 star 2 stars 3 stars 4 stars 5 stars
comments

Make Me Smile Tab

   
(No Chord)      F                Em             F
E|----------------|----------------|--------------|-----------------|
B|----------------|----------------|--------------|-----------------|
G|----------------|----------------|--------------|-----------------|
D|----------7-5-7-|-7-5-7-7--5-7-5-|-5--5-3-2-3-5-|-3-2-0-3---2-0-0-|
A|----------------|----------------|--------------|-----------------|
E|----------------|----------------|--------------|-----------------|
  Am       Em          Em             G                     G
E|--------|-----------|--------------|------------12-12-12-|--12-13-15--|
B|--------|-----------|------8-10-10-|-10-8/10\8-----------|------------|
G|--------|-----------|--7-9---------|---------------------|------------|
D|0-------|-------5-7-|-9------------|---------------------|------------|
A|--3-3---|---5/7-----|--------------|---------------------|------------|
E|--------|-----------|--------------|---------------------|------------|
[ Tab from: http://www.guitartabs.cc/tabs/s/steve_harley/make_me_smile_tab_ver_2.html ]
  Dm           F                   C
E|-15...13-12-|-13-12-------------|--------------------|
B|------------|-------13-13-12----|--------------------|                  
G|------------|----------------14-|-12--12-10-9-10-12--|
D|------------|-------------------|--------------------|
A|------------|-------------------|--------------------|
E|------------|-------------------|--------------------|
  G                    Dm                      F
E|--------------------|-13-12-----------------|------------------|
B|--------------------|-------14-13-12/13\12--|------------------|
G|-12-10-9------------|-----------------------|-14-12-10-9-10-12-|
D|---------12-10-9-12-|-----------------------|------------------|
A|--------------------|-----------------------|------------------|
E|--------------------|-----------------------|------------------|
  C           G               G (Stop dead)
E|-----------|---------------|-----------|
B|-----------|---------------|-----------|
G|-12...10-9-|-7-5\4/5-5-4-0-|-0---------|
D|-----------|---------------|-----------|
A|-----------|---------------|-----------|
E|-----------|---------------|-----------|

This is Dedicated to Charlotte Gorman, the only on eto make me smile in my Life I luv u, Jak
Comments