Steve Hackett - Lovers Chords & Tabs

 

Lovers Chords & Tabs

Steve Hackett Chords & Tabs

Version: 1 Type: Tab 0 ratings
1 star 2 stars 3 stars 4 stars 5 stars
comments

Lovers Tab

   
Accordage : E A D G B E         
Classical Guitar

   
   |2-------2-----------2-----------|3-------2-------3-------2-------|---------|
   |------------5---------------5---|------------5---------------5---|---------|
4/4|----5-------------------5-------|----5---------------5-----------|---------|
   |0---------------0---------------|0---------------0---------------|---------|
   |--------------------------------|--------------------------------|---------|
   |--------------------------------|--------------------------------|---------|

    
   |--------7-------7---7-----------|--------0-----------------------|
   |--------8---------------8---7---|--------1-----------------------|
3/4|--------9-----------------------|--------2-----------------------|
   |--------9-----------------------|--------2-----------------------|
   |--------0-----------------------|--------0-----------------------|
   |--------------------------------|--------------------------------|

         
   |--------7-------7---7-----------|   |--------0---------------|
   |--------8---------------8---7---|   |--------1---------------|
   |--------9-----------------------|   |--------2---------------|
   |--------9-----------------------|2/4|--------2---------------|
   |--------0-----------------------|   |--------0---------------|
   |--------------------------------|   |------------------------|
[ Tab from: http://www.guitartabs.cc/tabs/s/steve_hackett/lovers_tab.html ]
        
   |3-----------5---3-----------2---|3-------------------------------|
   |--------3---------------3-------|3-------------------------------|
4/4|----2---------------2-----------|2-------------------------------|
   |--------------------------------|0-------------------------------|
   |3---------------3---------------|3-------------------------------|
   |--------------------------------|0-------------------------------|

        
   |2-------3/------5-------10------|--------0-----------------------|
   |--------------------------------|3-------------------------------|
   |----------------------------0---|----0---------------------------|
   |0-------------------------------|--------------------------------|
   |--------------------------------|3-------------------------------|
   |--------------------------------|--------------------------------|

         
   |3-----------5---3-----------2---|3-------------------------------|
   |--------3---------------3-------|3-------------------------------|
   |----2---------------2-----------|2-------------------------------|
   |--------------------------------|0-------------------------------|
   |3-------------------3-----------|3-------------------------------|
   |--------------------------------|0-------------------------------|

        
   |3-----------5---3-----------2---|3-------------------------------|
   |--------3---------------3-------|3-------------------------------|
   |----2---------------2-----------|2-------------------------------|
   |--------------------------------|0-------------------------------|
   |3-------------------3-----------|3-------------------------------|
   |--------------------------------|0-------------------------------|
Comments