Steve Earle - Taneytown Chords & Tabs

 

Taneytown Chords & Tabs

Steve Earle Chords & Tabs

Version: 1 Type: Tab 0 ratings
1 star 2 stars 3 stars 4 stars 5 stars
comments

Taneytown Tab

   
-------------------------------------------------------------------------------
			     JERUSALEM - Steve Earle
-------------------------------------------------------------------------------
Tabbed by: J
Email: jshepp08@amherst.edu

Tuning: Standard

Intro (Clean):

e|----------|----------|---------|---------|-----------|---------|--------|
B|----------|----------|---------|---------|-----------|---------|--------|
G|------2---|-----0----|---0-----|-----2---|-------0---|---0-----|--------|
D|----2-----|---2------|-0---0---|---2-----|----2---2--|-0---0---|--------|
A|--0-----2-|-3------3-|------2--|-0-----2-|-3---3---3-|------2--|-0------|
E|----------|----------|-------3-|---------|-----------|-------3-|--------|

Incidental Lick (Dist.):

	Em
e|-----------|----|
B|---1-0---0-|----|
G|-------2---|-2--|
D|-----------|----|
A|-----------|----|
E|-----------|----|

Kick on some overdrive for the rest of the song, which is all played like this:
[ Tab from: http://www.guitartabs.cc/tabs/s/steve_earle/taneytown_tab.html ]
	Am		C	   G			    Am		C	  G
e|---0---0----|-0---0-|-3---3---------|-0---0----|-0---0-|-3---3---------|
B|---1---1----|-1---1-|-0---0h1p0(h1)-|-1---1----|-1---1-|-0---0h1p0(h1)-|
G|---2---2----|-0---0-|-0---0---------|-2---2----|-0---0-|-0---0---------|
D|---2---2----|-2---2-|-0---0---------|-2---2----|-2---2-|-0---0---------|
A|---0---0--2-|-3---3-|-2---2---------|-0---0--2-|-3---3-|-2---2---------|
E|------------|-------|-3---3---------|----------|-------|-3---3---------|

   Am			Em (With incidental)
e|-0--0--0-0-|-0--0--0--0--|
B|-1--1--1-1-|-0--0--0--0--|
G|-2--2--2-2-|-0--0--0--0--|
D|-2--2--2-2-|-2--2--2--2--|
A|-0--0--0-0-|-2--2--2--2--|
E|-----------|-0--0--0--0--|

This progression repeats for every verse and chorus.  There's a solo in there somewhere
that I don't know, and it's the same chords under that as well.  Kill the distortion for
the last verse, which is softer.  I'm not sure if the intro tab here is perfect, but it
sounds good and is at least very close to the way Steve plays it on El Corazón.  Anyway,
have fun with this great song.
Comments