Steve Angrisano - Isiah 43 Chords & Tabs

 

Isiah 43 Chords & Tabs

Steve Angrisano Chords & Tabs

Version: 1 Type: Tab 0 ratings
1 star 2 stars 3 stars 4 stars 5 stars
comments

Isiah 43 Tab

   
D {x00232}
Bm {x24432} or {xx4432)
Bmsus {x04430}
G {320003} or {320033)- if you like a high note at the end of the strum
C {x32010
A {x02220
Em {x22100}

Capo 2, all chords are realtive to the capo

Walk down based on the D and G chord:
        D        D/C       D/B       D/A       G/F       G
E|---2-2-2-2---2-2-2-2---2-2-2-2---2-2h3-3---3-3-3-3---3-3-3-3--------------|
B|---3-3-3-3---3-3-3-3---3-3-3-3---3-3-3-3---3-3-3-3---3-3-3-3--------------|
G|---2-2-2-2---2-2-2-2---2-2-2-2---2-2-2-2---2-2-2-2---2-2-2-2--------------|
D|0--0-0-0-0---0-0-0-0---0-0-0-0---0-0-0-0---0-0-0-0---0-0-0-0--------------|
A|-----------4---------2---------0------------------------------------0-2-4-|
E|-----------------------------------------3---------2----------0-2-3-------|
       D          D          D           Bm
E|-2-2-2-2-2--2-2-2-2-2--2-2-2-2-2---2---2-2-|
B|-3-3-3-3-3--3-3-3-3-3--3-3-3-3-3---3---3-3-|
G|-2-2-2-2-2--2-2-2-2-2--2-2-2-2-2---2---4-4-|  Last two strums are palm-
D|-0-0-0-0-0--0-0-0-0-0--0-0-0-0-0---0---4-4-|  muted, (the Bm strums)
A|---------------------------------------2-2-|
E|---------------------------------------2-2-|
^- on this verse intro the strum pattern is (down, down, up, down, up)

Then after the palm muted strum it goes straight into the chord part of the
song:
[ Tab from: http://www.guitartabs.cc/tabs/s/steve_angrisano/isiah_43_tab.html ]
First Verse:
D      Bm                  Bmsus
When you pass, through the waters
           G        C G
I will be with you
         Bm                Bmsus       G
And the waves, shall not over-come you

Chorus:

A   G   D        A              G         C G
Do not fear for I have have redeemed you
      Bm            Bmsus          G       A
I have called you by name, you are mine
                  D
(Men) For I am the Lord your God

(Women) I am the Lord your God
              C
(Men) For I am the Lord you God    ______________________________________
        C*                        |on the C* you turn the C into {x32013)|
(Women) I---am                    ----------------------------------------
       Em    A        Em   A   G C A
The Holy One of Israel, your Savior

------------Now start the walkdown from the begining of the song------------

(Men) I am the Lord-|
                    |<-> do this far four times
(Women) Do not fear-|


2nd Verse:
         Bm                Bmsus
When you walk through the fire
                 G     C G
You'll not be burned
         Bm           Bmsus
And the flames will not, consume you

--------chorus then the song ends-----------------
Comments