Sterling Chris - Goblin Chords & Tabs

 

Goblin Chords & Tabs

Sterling Chris Chords & Tabs

Version: 1 Type: Tab 0 ratings
1 star 2 stars 3 stars 4 stars 5 stars
comments

Goblin Tab

goblin by chris sterling



chorus repeat 19 times
--------------------------------------------------------------------
--------------------------------------------------------------------
--------------------------------------------------------------------
--------------------------------------------------------------------
-7-x-7-7-x-7-7-7-7-5-5----------------------------------------------
-5-x-5-5-x-5-5-5-5-3-3----------------------------------------------

solo
[ Tab from: http://www.guitartabs.cc/tabs/s/sterling_chris/goblin_tab.html ]
---------------------------------------------------------------------
-7-x-7-7-x-7-7-7-7-5-5-----------------------------------------------
-5-x-5-5-x-5-5-5-5-3-3-3b-3b-3b-3h5-3h5-3h5-3h5-3b-1h3-1h3-1h3-1h3-1h3
---------------------------------------------------------------------
---------------------------------------------------------------------
---------------------------------------------------------------------

---------------------------------------------------------------------
-3-------------------------------------------------------------------
-1--1p0-1p0-1p0-1p0-1p0-1p0-2p0-2p0-2p0-2p0-3p0-3p0-3p0-3p0-4p0-4p0-4/
---------------------------------------------------------------------
---------------------------------------------------------------------
---------------------------------------------------------------------

repeat chorus 3 more times


ending


--------------------------------------------------------------------
--------------------------------------------------------------------
--------------------------------------------------------------------
--------------------------------------------------------------------
-7-7-7-7-7-7-7-7-7-7-7-7-5-5-5-5-5-5-5-5-5-5------------------------
-5-5-5-5-5-5-5-5-5-5-5-5-3-3-3-3-3-3-3-3-3-3------------------------
Comments