Steriogram - White Trash Chords & Tabs

 

White Trash Chords & Tabs

Steriogram Chords & Tabs

Version: 1 Type: Tab 0 ratings
1 star 2 stars 3 stars 4 stars 5 stars
comments

White Trash Tab

   
-------------------------------------------------------------------------------
			     White Trash - Steriogram
-------------------------------------------------------------------------------
Tabbed by:Calvin
Email:rovrlinbackr74@yahoo.com

Tuning:standard tuning
[ Tab from: http://www.guitartabs.cc/tabs/s/steriogram/white_trash_tab.html ]
Intro and Verse
e|--------------------------------------------------------------------------------------|
B|--------------------------------------------------------------------------------------|
G|----4-----4--5------5--6-----6--5-----------------------------------------------------|
D|----4-----4--5------5--6-----6--3--------X4-------------------------------------------|
A|----2-----2--3------3--4-----4--3-----------------------------------------------------|
E|--------------------------------------------------------------------------------------|
Chorus
e|3--3--2--2--3--3--3--3-----------------------------------------------------------|
B|3--3--3--3--3--3--3--3-----------------------------------------------------------|
G|0--0--2--2--0--0--0--0-----------------------------------------------------------|
D|0--0--0--0--2--2--2--2-----------------------------------------------------------|
A|2--2--------2--2--3--3-----------------------------------------------------------|
E|3--3--------0--0-----------------------------------------------------------------|
Solo
e|----------------------------------------------|
B|----------------------------------------------|
G|----------------------------------------------|
D|----------------------------------------------|
A|--2-----2-0---3----2-3-4--4-2-0-3---------X2--|
E|------------3---------------------------------|

Thats all tell me how i did!


| /  slide up
| \  slide down
| h  hammer-on
| p  pull-off
| ~  vibrato
| +  harmonic
| x  Mute note
===============================================================================
Comments