Steriogram - White Trash Chords & Tabs

 

White Trash Chords & Tabs

Steriogram Chords & Tabs

Version: 1 Type: Bass Tab

White Trash Bass Tab

-------------------------------------------------------------------------------
                            WHITE TRASH - Steriogram
-------------------------------------------------------------------------------

Tabbed By : HanR
e-mail: Moshpit_monkey@hotmail.co.uk

Verses:
G|--------------------------------------------------------------------------|
D|--------------------------------------------------------------------------|
A|---2------222------3-----333-----4-----444----3-----333-------------------|
E|--------------------------------------------------------------------------|
[ Tab from: http://www.guitartabs.cc/tabs/s/steriogram/white_trash_btab.html ]
Chorus:
G|---------------------------------------------------------------------------|
D|---------------------------------------------------------------------------|
A|--------------55555-------77777------55555---------------------------------|
E|-----55555-----------------------------------------------------------------|

Solo:

G|--------------------------------------------------------------------------|
D|--------------------------------------------------------------------------|
A|-------2--2---0------3-----2---3----4--4----2---0----3--------------------|
E|-----------------3--------------------------------------------------------|

G|--------------------------------------------------------------------------|
D|--------------------------------------------------------------------------|
A|-------2--2---0------3-----2---3----4--4----2---0----3--------------------|
E|-----------------3--------------------------------------------------------|