Sterile Ground - In Darkened Rooms Chords & Tabs

 

In Darkened Rooms Chords & Tabs

Sterile Ground Chords & Tabs

Version: 2 Type: Tab 0 ratings
1 star 2 stars 3 stars 4 stars 5 stars
comments

In Darkened Rooms Tab

   
                                  In Darkened Rooms

RIFF 1 (played on low D string)
d--0-0-0-2-0-0-3-0-0-2-2-x-x

RIFF 1A
d------9 / 0------|
a------9 / 0------|
d------9 / 0------|

RIFF 2
e--------------------------------------(x3)|------------------------|
b--------------------------------------(x3)|------------------------|
g--------------------------------------(x3)|------------------------|
d-0--0--0--3--0--0--5--0--0--3--0-0--2-(x3)| 2--x-x-2--2--2-x-x-x-x-|
a-0--0--0--3--0--0--5--0--0--3--0-0--2-(x3)| 2--x-x-2--2--2-x-x-x-x-|
d-0--0--0--3--0--0--5--0--0--3--0-0--2-(x3)| 2--x-x-2--2--2-x-x-x-x-|

RIFF 3
e-----------------------------------------------------|
b-----------------------------------------------------|
g-----------------------------------------------------|
d--3--3--3--3--5--5--5--5---0-0-0-2-0-0-3-0-0-2-0-0-2-|
a--3--3--3--3--5--5--5--5---0-0-0-2-0-0-3-0-0-2-0-0-2-|
d--3--3--3--3--5--5--5--5---0-0-0-2-0-0-3-0-0-2-0-0-2-|
[ Tab from: http://www.guitartabs.cc/tabs/s/sterile_ground/in_darkened_rooms_tab_ver_2.html ]
RIFF 4
e----------|----------------------|
b----------|----3--3--x--3--3-3-3-|
g----------|----3--3--x--2--2-2-2-|
d--0--(let-|----------------------|
a--0--ring-|----------------------|
d--0--out)-|----------------------|

RIFF 5
e-------------------------------------------------|
b-------------------------------------------------|
g-------------------------------------------------|
d--3--3--3--3--3--3--3--3-5-2--2--2--2--2/3--3--0-|
a--3--3--3--3--3--3--3--3-5-2--2--2--2--2/3--3--0-|
d--3--3--3--3--3--3--3--3-5-2--2--2--2--2/3--3--0-|

RIFF 6
e-------------------------------------------------------------|
b-------------------------------------------------------------|
g-------------------------------------------------------------|
d-0-0-0-2-0-0-3-0-0-5-0-0-7-0-0-9-0-0-10-0-0-12-0-0-14-0-0-15-|
a-0-0-0-2-0-0-3-0-0-5-0-0-7-0-0-9-0-0-10-0-0-12-0-0-14-0-0-15-|
d-0-0-0-2-0-0-3-0-0-5-0-0-7-0-0-9-0-0-10-0-0-12-0-0-14-0-0-15-|

ORDER

RIFF 1 X4
RIFF 1A X1
RIFF 2 X2
RIFF 3 X2
RIFF 1A X1
RIFF 2 X2
RIFF 3 X2
RIFF 4 X8
RIFF 5 X1
RIFF 3 X4
RIFF 6 X1
end on Low D5 (0-0-0-x-x-x)
Comments