Stereophonics - Vegas Two Times Chords & Tabs

 

Vegas Two Times Chords & Tabs

Stereophonics Chords & Tabs

Version: 6 Type: Tab 0 ratings
1 star 2 stars 3 stars 4 stars 5 stars
comments

Vegas Two Times Tab

   
song:vegas two times
band:stereophonics
album:just enough education to perform
written by:kelly jones

for the best sound you need crunchy distortion, fairly high gain. Lots of treble, and 
your bridge pickup.

P=pulloff
x=muted
^=bend

intro:
   D                        F# G G# A C C#
e-----------------------------------------|
B-----------------------------------------|
G--2-------2-----2-----2--------------5-6-|
D--0-------0-----0-----0-----4-5-6--7-5-6-|
A------3p0---3p0---3p0---3p0-4-5-6--7-3-4-|
E----------------------------2-3-4--5-----|

play this bit three times then:

   D                         G7     G7     G7
e----------------------------1111-x-1111-x-11-|
B----------------------------0000-x-0000-x-00-|
G--2-------------------------0000-x-0000-x-00-|
D--0-------0-----0-----0-----0000-x-0000-x-00-|
A------3p0---3p0---3p0---3p0-2222-x-2222-x-22-|
E----------------------------3333-x-3333-x-33-|

verse:(Play this whole section twice)
  B       B
e-----------------|
B-----------------|
G-2--4-xx-2--4-xx-|
D-4--4-xx-4--4-xx-|
A-2--2-xx-2--2-xx-|
E-----------------|
[ Tab from: http://www.guitartabs.cc/tabs/s/stereophonics/vegas_two_times_tab_ver_6.html ]
play this bit twice then:
  E       E
e-0--0-xx-0--0-xx-|
B-0--0-xx-0--0-xx-|
G-1--x-xx-1--x-xx-|
D-2--2-xx-2--2-xx-|
A-2--2-xx-2--2-xx-|
E-0--0-xx-0--0-xx-|
play this twice then on the chorus just play the intro again.
on the last
After the second chorus theres a bridge which is just an A chord with a slow wah effect 
a small guitar solo.

Solo:

e----------------------------------------------------------------|
B----------------------------------------------------------------|
G-7----5-7-5-----7----5-7-5-----9^(10)^9-7--9^(10)^9-7---5-7-5---|
D----7-------7------7-------7----------------------------------7-|
A----------------------------------------------------------------|
E----------------------------------------------------------------|

play this twice, then theres a bit of a bridge (similar to the intro).

Bridge:
   D C A D       F#G G#A C C#
e----------------------------|
B----------------------------|
G----------------------------|
D--7-5-2-7---------------5-6-|
A--5-3-0-5-------4-5-6-7-3-4-|
E----------------2-3-4-5-----|

It does this a load of times then theres a couple more choruses and it ends on a G7 chord (see above).
Comments