Stereophonics - Vegas Two Times Chords & Tabs

 

Vegas Two Times Chords & Tabs

Stereophonics Chords & Tabs

Version: 2 Type: Tab 1 rating
1 star 2 stars 3 stars 4 stars 5 stars
comments

Vegas Two Times Tab

   
#----------------------------------PLEASE NOTE---------------------------------#
#This file is the author's own work and represents their interpretation of the #
#song. You may only use this file for private study, scholarship, or research. #
#------------------------------------------------------------------------------#

VEGAS TWO TIMES
(Stereophonics)


Tabbed by David Tyson (noel_david84@yahoo.com)


Chords used:

   EADGBe
D5  (xx023x)
G7  (320001)
B5  (x24xxx)
E  (022100)
Eadd#11  (022300)
D  (xx0232)
D7  (xx0212)
Gadd9/D  (xx0435)
Gmadd9/D  (xx0335)




INTRO
-----
                                   D5
                                Gtr 1+2(elec.)
e-------------------------------|-------------------------------|
B-------------------------------|--3----------------------1-1p0-|
G---------------x-x-x-x-x-x-x-x-|.-2----------------------2-2p0-|
D-------------------------------|.-0--------0-----0-------0-0-0-|
A-------------------------------|--0----3p0---3p0---3p0-0-------|
E-------------------------------|-------------------------------|

e-------------------------------|-------------------------------|
B-------------------------------|--2----------------------1-1p0-|
G-------------------------------|--3----------------------2-2p0-|
D-------------------------------|--0--------0-----0-------0-0-0-|
A---------------------3---5-----|--0----3p0---3p0---3p0-0-------|
E--2----3----4----5-------------|-------------------------------|

    ___________________________   _____________________________
   |1.                         | |2.                           |
                                  G7
|e-------------------------------|-1-1-1-1----1-1-1-1----1-1-1-1-|
|B-------------------------------|-0-0-0-0----0-0-0-0----0-0-0-0-|
|G------------------------------.|-0-0-0-0----0-0-0-0----0-0-0-0-|
|D------------------------------.|-0-0-0-0--0-0-0-0-0--0-0-0-0-0-|
|A---------------------3---5-----|-2-2-2-2--2-2-2-2-2--2---------|
|E--2----3----4----5-------------|-3-3-3-3--3-3-3-3-3--3-3-3-3-3-|
|                                          PM         PM
|e-------------------------------|-1-1-1-1----1-1-1-1----1-1-1-1-|
|B-------------------------------|-0-0-0-0----0-0-0-0----0-0-0-0-|
|G---------------------6---7-----|-0-0-0-0----0-0-0-0----0-0-0-0-|
|D--4----5----6----7-------------|-0-0-0-0--0-0-0-0-0--0-0-0-0-0-|
|A-------------------------------|-2-2-2-2--2-2-2-2-2--2---------|
|E-------------------------------|-3-3-3-3--3-3-3-3-3--3-3-3-3-3-|


VERSE 1
-------


   B5
  
e---------------------------------|-------------------------------------------------|
B---------------------------------|-------------------------------------------0-----|
G--2--4-x-x-2---4---4----4----4---|-2---------4--x--x--2---------------4-4-4--0-----|
D---------------------------------|-------------------------------------------------|
A---------------------------------|-------------------------------------------------|
E---------------------------------|-------------------------------------------------|

   E                                 Eadd#11
                
e----------------0-----0--0--0--0-|--------0-------------0--------------------|
B-------x-x------0-----0--0--0--0-|--0------------0-------------3b4--3--------|
G--1----x-x------1-----1--1--1--1-|--3------------3---------------------------|
D--2----x-x------2-----2--2--2--2-|--2----------------------------------------|
A--2----x-x------2----------------|--2----------------------------------------|
E--0---------0---0----------------|--0----------------------------------------|

   B5
  
e---------------------------------|-------------------------------------------------|
B---------------------------------|-------------------------------------------0-----|
G--2--4-x-x-2---------4-4--4--4---|-2---------4--x--x--2---------------4-4-4--0-----|
D---------------------------------|-------------------------------------------------|
A---------------------------------|-------------------------------------------------|
E---------------------------------|-------------------------------------------------|

   E                                 Eadd#11
             
e----------------0-----0--0--0--0-|--------0-------------0---------------------|
B-------x-x------0-----0--0--0--0-|--0------------0-------------3b4--3---------|
G--1----x-x------1-----1--1--1--1-|--3------------3-------------------------0--|
D--2----x-x------2-----2--2--2--2-|--2--------------------------------------0--|
A--2----x-x------2----------------|--2--------------------------------------0--|
E--0---------0---0----------------|--0-----------------------------------------|


CHORUS
------


   D5
   leav        -           ing    L.   A.   S.     Ve - gas
e------------------------------|------------------------------|
B--3---------------------1-1p0-|------------------------------|
G--2---------------------2-2p0-|------------------------------|
D--0-------0-----0-------0-0-0-|------------------------------|
A--0---3p0---3p0---3p0-0-------|---------------------3----5---|
E------------------------------|--2----3----4----5------------|

   two     times ...
e------------------------------|------------------------------|
B--3---------------------1-1p0-|------------------------------|
G--2---------------------2-2p0-|------------------------------|
D--0-------0-----0-------0-0-0-|------------------------------|
A--0---3p0---3p0---3p0-0-------|---------------------3----5---|
E------------------------------|--2----3----4----5------------|

 
e------------------------------|------------------------------|
B--3---------------------1-1p0-|------------------------------|
G--2---------------------2-2p0-|------------------------------|
D--0-------0-----0-------0-0-0-|------------------------------|
A--0---3p0---3p0---3p0-0-------|---------------------3-----5--|
E------------------------------|--2----3----4----5------------|
                                
                                 G7
  
e------------------------------|-1-1-1-1----1-1-1-1----1-1-1-1-|
B--3---------------------1-1p0-|-0-0-0-0----0-0-0-0----0-0-0-0-|
G--2---------------------2-2p0-|-0-0-0-0----0-0-0-0----0-0-0-0-|
D--0-------0-----0-------0-0-0-|-0-0-0-0--0-0-0-0-0--0-0-0-0-0-|
A--0---3p0---3p0---3p0-0-------|-2-2-2-2--2-2-2-2-2--2---------|
E------------------------------|-3-3-3-3--3-3-3-3-3--3-3-3-3-3-|
                                         PM         PM


VERSE 2 
-------

[Repeat chords and riffs for verse 1, but with these lyrics:]

[REPEAT CHORUS]


BRIDGE
------

    D                               D7
|e--2--2---x--2------------------|--2--2------2------------------|
|B--3--3---x--3----------3-------|--1--1---x--1----------3-------|
|G--2--2---x--2------2h4----4p2--|--2--2---x--2------2h4----4p2--|
|D--0--0------0------------------|--0--0---x--0------------------|
|A-------------------------------|-------------------------------|
|E-------------------------------|-------------------------------|
|
|e-------------------------------|----------10-------------------|
|B-------------------------------|-------------------------------|
|G--7----------------------------|--9b10-----------------10r9----|
|D-------------------------------|-------------------------------|
|A-------------------------------|-------------------------------|
|E-------------------------------|-------------------------------|
[ Tab from: http://www.guitartabs.cc/tabs/s/stereophonics/vegas_two_times_tab_ver_2.html ]
    Gadd9/D                         Gmadd9/D
|e--5--5------5---------5--------|--5--5------5------------------|
|B--3--3---x--3------3--3--x--x--|--3--3---x--3----------5p3-----|
|G--4--4---x--4------4--4--x--x--|--3--3---x--3---------------3--|
|D--0--0---x--0------0--0--x--x--|--0--0---x--0------0-----------|
|A-------------------------------|-------------------------------|
|E-------------------------------|-------------------------------|
|
|e-------------------------------|-------------------------------|
|B-------------------------------|-------------------------------|
|G-------7-----------7-----------|--7-------------9--------------|
|D-------------9-----------------|-------------------------------|
|A-------------------------------|-------------------------------|
|E-------------------------------|-------------------------------|

    D                               D7
|e--2--2------2------------------|--2--2------2------------------|
|B--3--3---x--3----------3-------|--1--1---x--1----------3-------|
|G--2--2---x--2------2h4----4p2--|--2--2---x--2------2h4----4p2--|
|D--0--0---x--0------------------|--0--0---x--0------------------|
|A-------------------------------|-------------------------------|
|E-------------------------------|-------------------------------|
|
|e-------------------------------|-------------------------------|
|B-------------------------------|-------------------10----------|
|G--7----------------------------|--7----------------------------|
|D-------------------------------|-------------------------------|
|A-------------------------------|-------------------------------|
|E-------------------------------|-------------------------------|

    Gadd9/D                         Gmadd9/D
|e--5--5---------------5---5--5--|-------------------------------|
|B--3--3-----3-----3---3---3--3--|--5b6r5-3---5b6r5-3------------|
|G--4--4-----4-----4---4---4--4--|--3---------3---------3h5p3-0--|
|D--0--0-----0-----0---0---------|--0---------0---------0--------|
|A-------------------------------|-------------------------------|
|E-------------------------------|-------------------------------|
|
|e-------------------------------|-------------------------------|
|B-------------------------------|-------------------------------|
|G--7----------------------------|--9----------------------------|
|D-------------------------------|-------------------------------|
|A-------------------------------|-------------------------------|
|E-------------------------------|-------------------------------|

    Gmadd9/D
|e-------------------------------|
|B--5b6r5-3---5b6r5-5------------|
|G--3---------3---------3h5p3-0--|
|D--0---------0---------0--------|
|A-------------------------------|
|E-------------------------------|
|
|e-------------------------------|
|B-------------------------------|
|G--9b10-7--9b10-7--9b10-7-7h9p7-|
|D-------------------------------|
|A-------------------------------|
|E-------------------------------|

   D5
 
e-------------------------------|-------------------------------|
B-------------------------------|-------------------------------|
G--------------------------x-x--|-------------------------------|
D--------------------------x-x--|-------------------------------|
A--5p3-----5-(5)----------------|----------------------3---5----|
E-------5-----------------------|--2----3----4----5-------------|

   D5
 
e-------------------------------|-------------------------------|
B-------------------------------|-------------------------------|
G--------------------------x-x--|-------------------------------|
D--------------------------x-x--|-------------------------------|
A--5p3-----5-(5)----------------|----------------------3---5----|
E-------5-----------------------|--2----3----4----5-------------|

   D5
  
e-------------------------------|-------------------------------|
B-------------------------------|-------------------------------|
G----------------x-x-x-x-x-x-x--|-------------------------------|
D----------------x-x-x-x-x-x-x--|-------------------------------|
A--5p3-----5-(5)----------------|----------------------3---5----|
E-------5-----------------------|--2----3----4----5-------------|

   D5
  
e-------------------------------|-------------------------------|
B-------------------------------|-------------------------------|
G--------------------------x-x--|-------------------------------|
D--------------------------x-x--|-------------------------------|
A--5p3-----5-(5)----------------|----------------------3---5----|
E-------5-----------------------|--2----3----4----5-------------|


CHORUS
------

   D5
   leav        -           ing    L.   A.   S.     Ve - gas
e------------------------------|------------------------------|
B--3---------------------1-1p0-|------------------------------|
G--2---------------------2-2p0-|------------------------------|
D--0-------0-----0-------0-0-0-|------------------------------|
A--0---3p0---3p0---3p0-0-------|---------------------3----5---|
E------------------------------|--2----3----4----5------------|

   two     times                 cra - zy   horse to spent us
e------------------------------|------------------------------|
B--3---------------------1-1p0-|------------------------------|
G--2---------------------2-2p0-|------------------------------|
D--0-------0-----0-------0-0-0-|------------------------------|
A--0---3p0---3p0---3p0-0-------|---------------------3----5---|
E------------------------------|--2----3----4----5------------|

   dry                            Vi - et - nam  vet tax - i
e------------------------------|------------------------------|
B--3---------------------1-1p0-|------------------------------|
G--2---------------------2-2p0-|------------------------------|
D--0-------0-----0-------0-0-0-|------------------------------|
A--0---3p0---3p0---3p0-0-------|---------------------3-----5--|
E------------------------------|--2----3----4----5------------|
                                
   -   ride                      come  a - gain we'll make you
e------------------------------|------------------------------|
B--3---------------------1-1p0-|------------------------------|
G--2---------------------2-2p0-|------------------------------|
D--0-------0-----0-------0-0-0-|------------------------------|
A--0---3p0---3p0---3p0-0-------|---------------------3-----5--|
E------------------------------|--2----3----4----5------------|

      fly                      
e------------------------------|------------------------------|
B--3-----------------------1p0-|------------------------------|
G--2-----------------------2p0-|------------------------------|
D--0-------0-----0-3p0-----0-0-|------------------------------|
A--0---3p0---3p0-------3p0-----|---------------------3-----5--|
E------------------------------|--2----3----4----5------------|

  
e------------------------------|------------------------------|
B--3---------------------1-1p0-|------------------------------|
G--2---------------------2-2p0-|------------------------------|
D--0-------0-----0-------0-0-0-|------------------------------|
A--0---3p0---3p0---3p0-0-------|---------------------3-----5--|
E------------------------------|--2----3----4----5------------|
 
   
e------------------------------|------------------------------|
B--3-----------------------1p0-|------------------------------|
G--2-----------------------2p0-|------------------------------|
D--0-------0-----0-3p0-----0-0-|------------------------------|
A--0---3p0---3p0-------3p0-----|---------------------3-----5--|
E------------------------------|--2----3----4----5------------|

                                 G7
 
e------------------------------|-1--1--1--1------1--1--1--1---|
B--3---------------------1-1p0-|-0--0--0--0------0--0--0--0---|
G--2---------------------2-2p0-|-0--0--0--0------0--0--0--0---|
D--0-------0-----0-------0-0-0-|-0--0--0--0---0--0--0--0--0---|
A--0---3p0---3p0---3p0-0-------|-2--2--2--2---2--2--2--2--2---|
E------------------------------|-3--3--3--3---3--3--3--3--3---|
                               |              PM
                               |------------------------------|
                               |------------------------------|
                               |-10-10-10-10--10-10-10-10-10--|
                               |--9--9--9--9---9--9--9--9--9--|
                               |-10-10-10-10--10-10-10-10-10--|
                               |------------------------------|
Comments