Stereophonics - Vegas Two Times Chords & Tabs

 

Vegas Two Times Chords & Tabs

Stereophonics Chords & Tabs

Version: 1 Type: Tab 0 ratings
1 star 2 stars 3 stars 4 stars 5 stars
comments

Vegas Two Times Tab

Stereophonics - Vegas Two Times

Tabbed By Jonothan Campbell



I am pretty sure the bulk of this tab is correct, when i saw the replays of the Millenium Stadium 
Gig which i went to, this is how Kelly Jones played it. the only part of this tab i feel may be 
incorrect is the chilled out instrumental part.



Main Riff

e------------------------------------------------------|
b------------------------------------------------------|
g---7--------------------------------------------------|  X3 
d---7----------------------0---------------------------|
a---5-----3p0--3p0--3p0--3p0---------------3--5--------|
e------------------------------2--3--4--5--------------|


Main riff part 2


e------------------------------1-1-1-1-xx--1-1-1-|
b------------------------------0-0-0-0-xx--0-0-0-|
g---7--------------------------0-0-0-0-xx--0-0-0-|
d---7----------------------0---0-0-0-0-xx--0-0-0-|
a---5-----3p0--3p0--3p0--3p0---2-2-2-2-xx--2-2-2-|
e------------------------------3-3-3-3-xx--3-3-3-|


Verses
The chords in the verses are shown below, you will have to play them with the odd bit of
muting to get it to sound right, listen to the track to see what i mean.

E----------|-----|-----|-----|
B----------|-----|--3--|-----|
G--4-------|--1--|--1--|--3--|	(Reapeat as required)
D--4-or-9--|--2--|--2--|--2--|
A--2----9--|--2--|--2--|--2--|
E-------7--|--0--|--0--|--0--|

[ Tab from: http://www.guitartabs.cc/tabs/s/stereophonics/vegas_two_times_tab.html ]
after the verse ends, the main riff comes back into play. it is played exactly as it is at the 
start of the song.

After a few verses, there is an instrumental part. 

The main part of the guitar piece is

e----------------------------------------------------------|
b------------------------------------------10~~-10---------|
g----7--7---------7------7--7--------7--------------9b----7| X2
d----7--7----7h9----9p7--7--7---7h9----9p7-----------------|
a----5--5----------------5--5------------------------------|
e----------------------------------------------------------|


at the end of the instrumental, there is a heavy bit where kelly sings "Leave" lots.


e----------------------------------------|
b----------------------------------------|
g----------------------------------------| X4
d----------------------------------------|
a-----5--3---0---5---------------3--5----|
e--------------------2--3--4--5----------|


After this the main riff is played over till the end of the track, however there is one 
variation hearable at some point in the riff. it goes:-


e------------------------------------------------------|
b------------------------------------------------------|
g---7--------------------------------------------------|  
d---7-----------------5p0--3p0-------------------------|
a---5-----3p0--3p0--------------3p0--------------3--5--|
e------------------------------------2--3--4--5--------|

but after this is played once, the riff returns to normal and the song finishes with 
Main Riff Part 2. 
Comments