Stereophonics - Superman Chords & Tabs

 

Superman Chords & Tabs

Stereophonics Chords & Tabs

Version: 3 Type: Tab

Superman Tab

Stereophonics

Superman Tab on the Album 'Language. Sex. Violence. Other?'

This isn't the hardest song to play ever by Stereophonics, it takes only about 2 ot 3 
to understand the rhythm of the song altogether. Probably their heaviest song of what
I've of the 'Phonics' but some people will disagree because 'The Bartender and the
Theif' is crazy all the way through. It's just a matter of opinion.

Intro:
e/---------------------------------------|
B/---------------------------------------|
G/-----2----------2-------5-4------------|
D/-----2-------5--2-------5-4------------|
A/--5--0-------3--0-------3-2------------|
E/--3------------------------------------|

Verse 1:

e/---------------------------------------|
B/---------------------------------------|
G/-----2----------2--------2-------2-----|
D/-----2-------5--2--------2-----5-2-----|
A/--5--0-------3--0-----5--0-----3-0-----|
E/--3-------------------3----------------|

e/---------------------------------------|
B/---------------------------------------|
G/-----2------2------2-----2-------------|
D/-----2------2------2-----2-------------|
A/--5--0---5--0---5--0--5--0-------------|
E/--3------3------3-----3----------------| (x2)

Verses 2&3:

e/---------------------------------------|
B/---------------------------------------|
G/-----2------2------2-----2-------------|
D/-----2------2------2-----2-------------|
A/--5--0---5--0---5--0--5--0-------------|
E/--3------3------3-----3----------------| (x2)

e/---------------------------------------|
B/---------------------------------------|
G/-----2------2------2------2------------|
D/--5--2---5--2---5--2---5--2------------|
A/--3--0---3--0---3--0---3--0------------|
E/---------------------------------------|

e/---------------------------------------|
B/-----2------2------2-----2-------------|
G/-----2------2------2-----2-------------|
D/--5--0---5--0---5--0--5--0-------------|
A/--3------3------3-----3----------------|
E/---------------------------------------|

Chorus:

e/---------------------------------------|
B/---------------------------------------|
G/-----2------2------2-----2-------------|
D/-----2---5--2------2-----2-------------|
A/--5--0---3--0---5--0--3--0-------------|
E/--3-------------3----------------------|

e/---------------------------------------|
B/---------------------------------------|
G/-----2------2------2-----2-------------|
D/-----2------2------2-----2-------------|
A/--5--0---5--0---5--0--5--0-------------|
E/--3------3------3-----3----------------|

Verse 4&5:

(see verses 2&3)

(Chorus)

Pre-solo:

e/---------------------------------------|
B/---------------------------------------|
G/-----2------2------2-----2-------------|
D/-----2------2------2-----2-------------|
A/--5--0---5--0---5--0--5--0-------------|
E/--3------3------3-----3----------------|

e/---------------------------------------|
B/---------------------------------------|
G/-----2------2------2-----5--4----------|
D/-----2------2------2-----5--4----------|
A/--5--0---5--0---5--0-----3--2----------|
E/--3------3------3----------------------|

Solo:
[ Tab from: http://www.guitartabs.cc/tabs/s/stereophonics/superman_tab_ver_3.html ]
e----------------------------------10--8-----12-12-12-12-12-12-10-----|
G--13-12-10-----------------------------10----------------------------|
B-----------5----9-9-9-9-7-5-5----------------------------------------|
D---------------------------7-7---------------------------------------|
A---------------------------------------------------------------------|
E---------------------------------------------------------------------|

Chords played during solo:

e/---------------------------------------|
B/---------------------------------------|
G/-----2------2------2-----5--4----------|
D/-----2------2------2-----5--4----------|
A/--5--0---5--0---5--0-----3--2----------|
E/--3------3------3----------------------|

(Chorus)

Verse 5&6:

(see verses 2&3)

Last Solo:

e-15/17--17--17-17-17-17-17-17-17----------------------------------------|
B----------------------------------5-5-5-5-5-5-5-5-5---------------------|
G-----------------------------------------------------7/5--7-5-----------|
D--------------------------------------------------------------7---------|
A------------------------------------------------------------------------|
E------------------------------------------------------------------------|


e------------------------------------------------------------------------|
B-8/10-10-10-----10-10-10------10-10-10------10-------10-8---------5-5---|
G------------7/9-----------7/9-----------7/9------9-9------9-7-5---7-5-5-|
D----------------------------------------------------------------7-----7-|
A------------------------------------------------------------------------|
E------------------------------------------------------------------------|

e-15~17--17--17-17-17-17-17-17-17----------------------------------------|
B----------------------------------5-5-5-5-5-5-5-5--5--------------------|
G-----------------------------------------------------7~5--7-5-----------|
D--------------------------------------------------------------7---------|
A------------------------------------------------------------------------|
E------------------------------------------------------------------------|


e------------------------------------------------------------------------|
B-8~10-10-10-----10-10-10------10-10-10------10-------10-8---------5-5---|
G------------7~9-----------7~9-----------7~9------9-9------9-7-5---7-5-5-|
D----------------------------------------------------------------7-----7-|
A------------------------------------------------------------------------|
E------------------------------------------------------------------------|

e/--------------------------------------------------------------|
B/--------------------------------------------------------------|
G/--------------------------------------------------------------|
D/----5--7-7---5--7-7---5--7-(7)--------------------------------|
A/--------------------------------------------------------------|
E/--------------------------------------------------------------| (x2)

e/--------------------------------------------------------------|
B/--------------------------------------------------------------|
G/--------------------------------------------------------------|
D/----5-7--5-7--5-7--5-7--5-7--5-7--5-7--5-7--------------------|
A/--------------------------------------------------------------|
E/---------------------------------------------(3)------3-5-5---|