Stereophonics - Superman Chords & Tabs

 

Superman Chords & Tabs

Stereophonics Chords & Tabs

Version: 2 Type: Tab 0 ratings
1 star 2 stars 3 stars 4 stars 5 stars
comments

Superman Tab

   
Superman


Chords used:

A5	 5  7  7  x  x  x
C5	 8 10 10  x  x  x
F5	 x  8 10 10  x  x
D5	 x  5  7  7  x  x
B5	 7  9  9  x  x  x
Bb5	 6  8  8  x  x  x


riff 1		riff 2 		riff 3		riff 4
e------		e------		e------		e----------|
B------		B------		B------		b----------|
G------		G------		G------		G------5-4-|
D------		D------		D----5-		D------5-4-|
A----5-		A--3-5-		A--3-5-		A------3-2-|
E--3-5-		E----5-		E------		E----------|

Intro

   A5	C5   F5  D5	 	A5	C5   F5  D5

e---8----7----5-------------------------------------------|
B-5----5----5-----3--5-5-etc------------------------------|
G---------------------------------------------------------|
D---------------------------------------------5-4---------|
A--------------------------------5----3-5-----3-2----5----|
E------------------------------3-5------5----------3-5----|

Chorus

A5           C5                F5
You don't know what it's been like
       D5                 
Meeting someone like you
A5           C5                F5
You don't know what it's been like
       D5                riff 1 (x8) 
Meeting someone like you

Verse 1

riff 1 (x8)
You look like Jesus on an aeroplane

Ya head's against the window pane
riff 2 (x4)
You got opinions but you ain't got news
riff 3 (x4)
You got good laughs but when it suits you


Verse 2

riff 1 (x8)
You turn it on like a leaking tap

Dripping dropping people drop of a hat
riff 2 (x4)
You gotta mouth but you ain't got guts
riff 3 (x4)
That drunken mouth you should keep it shut

Chorus

A5           C5                F5
You don't know what it's been like
       D5                 
Meeting someone like you
A5           C5                F5
You don't know what it's been like
       D5                 riff 1 (x4)
Meeting someone like you


Verse 3

riff 1 (x4)
Superman on an aeroplane

Sitting next to Lois Lane
riff 2 (x4)
You got that woman but you want her gone
riff 3 (x4)
So you can sleep with a teenage blonde


Verse 4

riff 1
You wear a mask, wear an armoured suit

Can't get to you with the gun I shoot
riff 2
Ya play your cards close to your chest
riff 3
Because ya poker face is a dreary mess


Chorus

A5           C5                F5
You don't know what it's been like
D5                       
Meeting someone like you
A5           C5                F5 
You don't know what it's been like
D5                         riff 1 (x8)    riff 4
Meeting someone like you


Guitar...


solo (wah-wah)
[ Tab from: http://www.guitartabs.cc/tabs/s/stereophonics/superman_tab_ver_2.html ]
 2:49
e----------------------------------10h-8-----12-12-12-12-12-12-12-10--|
G--13-12-10-----------------------------10----------------------------|
B-----------5----9-9-9-9-7-5-5----------------------------------------|
D---------------------------7-7---------------------------------------|
A---------------------------------------------------------------------|
E---------------------------------------------------------------------|


Chorus


A5           C5                F5
You don't know what it's been like
D5                      
Meeting someone like you
A5           C5                F5 
You don't know what it's been like
D5                   C5
Meeting someone like you
		     B5
Meeting someone like you
		     Bb5
Meeting someone like you
		     A5
Meeting someone like you
		     C5
Meeting someone like you
		     B5
Meeting someone like you
                Bb5      riff 1 (x7)     riff 4
Meeting someone liiiiiiike  my my my my

riff 1 (x3)     riff 4


Verse 5

riff 1 (x3)    riff 4
Superman on an aeroplane
riff 1 (x3)       riff 4
Sitting next to Lois Lane
riff 1 (x3)            riff 4
You got that woman but you want her gone
riff 1 (x3)            riff 4		solo"
So you can fuck a teenage blonde


solo" (wah-wah)

  4:09
e-15~17-15~17-|
B-------------|
G-------------|
D-------------|
A-------------|
E-------------|


Verse 6

riff 1 (x3)               riff 4
You turn it on like a leaking tap
riff 1 (x3)                riff 4
Dripping dropping people drop of a hat
riff 1 (x3)                riff 4
You gotta mouth but you ain't got guts
riff 1 (x3)                 riff 4
That drunken mouth you should keep it shut

Outro solo (wah-wah)


 4:20 			 			 
e-15~17--17--17-17-17-17-17-17-17----------------------------------------|
B----------------------------------5-5-5-5-5-5-5-5--5--------------------|
G-----------------------------------------------------7~5--7-5-----------|
D--------------------------------------------------------------7---------|
A------------------------------------------------------------------------|
E------------------------------------------------------------------------|

  
e------------------------------------------------------------------------|
B-8~10-10-10-----10-10-10------10-10-10------10-------10-8---------5-5---|
G------------7~9-----------7~9-----------7~9------9-9------9-7-5---7-5-5-|
D----------------------------------------------------------------7-----7-|
A------------------------------------------------------------------------|
E------------------------------------------------------------------------|

  
e------------------------------------------------------------------------|
B-----------------------5-------------------------55---------------------|
G-5-5555--5-5555--5-555-5---5-5555--5-5555--5-555-75---------------------|
D-5-7777--5-7777--5-777-----5-7777--5-7777--5-777------------------------|
A------------------------------------------------------------------------|
E------------------------------------------------------------------------|

e-------------------------------------|
B-------------------------------------|
G-55-55-55-55-55-55-55-55----0--------|
D-57-57-57-57-57-57-57-57----0--------|
A----------------------------2--------|
E----------------------------3---3-55-|
Comments