Stereophonics - Step On My Old Size Nines Chords & Tabs

 

Step On My Old Size Nines Chords & Tabs

Stereophonics Chords & Tabs

Version: 2 Type: Tab 0 ratings
1 star 2 stars 3 stars 4 stars 5 stars
comments

Step On My Old Size Nines Tab

   
Step On My Old Size Nines - Acoustic(from album)
Stereophonics - from the album
"Just Enough Education to Perform"

tabbed by Martin Pollock

Open G tuning


========
INTRO
========
      G        Cmaj7
 
G-----0-x--0--------------------0-x-0-x-0---------------|
B-----0-x--0--------------------0-x-0-x-0---------------|
G-----0-x--0-0h2-2-2h4-4-4h7----0-x-0-x-0---------------|
D-----0----0---0-----0-----0----5---5---5---------------|
B-----0----0---0-----0-----0----5---5---5---------------|
G-----0----0--------------------5---5---5---------------|

G-----0-x--0--------------------0-x-0-x-0---------------|
B-----0-x--0--------------------0-x-0-x-0---------------|
G-----0-x--0-0h2-2-2h4-4-4h7----0-x-0-x-0---------------|
D-----0----0---0-----0-----0----5---5---5---------------|
B-----0----0---0-----0-----0----5---5---5---------------|
G-----0----0--------------------5---5---5---------------|


========
Verse 1
========

G-----0-x--0--------------------0-x-0-x-0---------------|
B-----0-x--0--------------------0-x-0-x-0---------------|
G-----0-x--0-0h2-2-2h4-4-4h7----0-x-0-x-0---------------|
D-----0----0---0-----0-----0----5---5---5---------------|
B-----0----0---0-----0-----0----5---5---5---------------|
G-----0----0--------------------5---5---5---------------|

G-----0-x--0--------------------0-x-0-x-0---------------|
B-----0-x--0--------------------0-x-0-x-0---------------|
G-----0-x--0-0h2-2-2h4-4-4h7----0-x-0-x-0---------------|
D-----0----0---0-----0-----0----5---5---5---------------|
B-----0----0---0-----0-----0----5---5---5---------------|
G-----0----0--------------------5---5---5---------------|


G-----0-x--0--------------------0-x-0-x-0---------------|
B-----0-x--0--------------------0-x-0-x-0---------------|
G-----0-x--0-0h2-2-2h4-4-4h7----0-x-0-x-0---------------|
D-----0----0---0-----0-----0----5---5---5---------------|
B-----0----0---0-----0-----0----5---5---5---------------|
G-----0----0--------------------5---5---5---------------|


G-----0-x--0--------------------0-x-0-x-0---------------|
B-----0-x--0--------------------0-x-0-x-0---------------|
G-----0-x--0-0h2-2-2h4-4-4h7----0-x-0-x-0---------------|
D-----0----0---0-----0-----0----5---5---5---------------|
B-----0----0---0-----0-----0----5---5---5---------------|
G-----0----0--------------------5---5---5---------------|
 
G-----0-----0--x-0--0----0-----0---0-0------------------|
B-----0-----0--x-0--0----0-----0---0-0------------------|
G-----7-----7--x-7--7----0-----0---0-0------------------|
D-----7---7------7--7----5--5--5---5-5------------------|
B-----7---7------7--7----5--5------5-5------------------|
G------------------------5--5------5-5------------------|


------------
Instrumental2 BARS - same as intro
------------

------------
Verse 2
------------


G-----0-x--0--------------------0-x-0-x-0---------------|
B-----0-x--0--------------------0-x-0-x-0---------------|
G-----0-x--0-0h2-2-2h4-4-4h7----0-x-0-x-0---------------|
D-----0----0---0-----0-----0----5---5---5---------------|
B-----0----0---0-----0-----0----5---5---5---------------|
G-----0----0--------------------5---5---5---------------|

G-----0-x--0--------------------0-x-0-x-0---------------|
B-----0-x--0--------------------0-x-0-x-0---------------|
G-----0-x--0-0h2-2-2h4-4-4h7----0-x-0-x-0---------------|
D-----0----0---0-----0-----0----5---5---5---------------|
B-----0----0---0-----0-----0----5---5---5---------------|
G-----0----0--------------------5---5---5---------------|


G-----0-x--0--------------------0-x-0-x-0---------------|
B-----0-x--0--------------------0-x-0-x-0---------------|
G-----0-x--0-0h2-2-2h4-4-4h7----0-x-0-x-0---------------|
D-----0----0---0-----0-----0----5---5---5---------------|
B-----0----0---0-----0-----0----5---5---5---------------|
G-----0----0--------------------5---5---5---------------|


G-----0-x--0--------------------0-x-0-x-0---------------|
B-----0-x--0--------------------0-x-0-x-0---------------|
G-----0-x--0-0h2-2-2h4-4-4h7----0-x-0-x-0---------------|
D-----0----0---0-----0-----0----5---5---5---------------|
B-----0----0---0-----0-----0----5---5---5---------------|
G-----0----0--------------------5---5---5---------------|
 
G-----0-----0--x-0--0----0-----0---0-0------------------|
B-----0-----0--x-0--0----0-----0---0-0------------------|
G-----7-----7--x-7--7----0-----0---0-0------------------|
D-----7---7------7--7----5--5--5---5-5------------------|
B-----7---7------7--7----5--5------5-5------------------|
G------------------------5--5------5-5------------------|

---------
Middle 8
---------

G-----0-x--0--------------------0-x-0-x-0---------------|
B-----0-x--0--------------------0-x-0-x-0---------------|
G-----0-x--0-0h2-2-2h4-4-4h7----0-x-0-x-0---------------|
D-----0----0---0-----0-----0----5---5---5---------------|
B-----0----0---0-----0-----0----5---5---5---------------|
G-----0----0--------------------5---5---5---------------|

G-----0-x--0--------------------0-x-0-x-0---------------|
B-----0-x--0--------------------0-x-0-x-0---------------|
G-----0-x--0-0h2-2-2h4-4-4h7----0-x-0-x-0---------------|
D-----0----0---0-----0-----0----5---5---5---------------|
B-----0----0---0-----0-----0----5---5---5---------------|
G-----0----0--------------------5---5---5---------------|


G-------------------------------------------------------|
B-----0-0-0--0-0-0--0-0-0--0-0-0------------------------|
G-----7-7-7--0-0-0--7-7-7--0-0-0------------------------|
D-----7-7-7--5-5-5--7-7-7--5-5-5------------------------|
B-----7-7-7--5-5-5--7-7-7--5-5-5------------------------|
G------------5-5-5---------5-5-5------------------------|

Harmonics!!!!
G-----(12)-----(7)-----(5)----(7)----(5)----(7)----(5)--|
B-----(12)-----(7)-----(5)----(7)----(5)----(7)----(5)--|
G-----(12)-----(7)-----(5)----(7)----(5)----(7)----(5)--|
D-----(12)-----(7)-----(5)----(7)----(5)----(7)----(5)--|
B-----(12)-----(7)-----(5)----(7)----(5)----(7)----(5)--|
G-----(12)-----(7)-----(5)----(7)----(5)----(7)----(5)--|

G-------------------------------------------------------|
B-----0-0-0--0-0-0--0-0-0--0-0-0------------------------|
G-----7-7-7--0-0-0--7-7-7--0-0-0------------------------|
D-----7-7-7--5-5-5--7-7-7--5-5-5------------------------|
B-----7-7-7--5-5-5--7-7-7--5-5-5------------------------|
G------------5-5-5---------5-5-5------------------------|

[ Tab from: http://www.guitartabs.cc/tabs/s/stereophonics/step_on_my_old_size_nines_tab_ver_2.html ]
Harmonics!!!!
G-----(12)-----(7)-----(5)----(7)----(5)----(7)----(5)--|
B-----(12)-----(7)-----(5)----(7)----(5)----(7)----(5)--|
G-----(12)-----(7)-----(5)----(7)----(5)----(7)----(5)--|
D-----(12)-----(7)-----(5)----(7)----(5)----(7)----(5)--|
B-----(12)-----(7)-----(5)----(7)----(5)----(7)----(5)--|
G-----(12)-----(7)-----(5)----(7)----(5)----(7)----(5)--|

---------
Verse 3
---------

G-----0-x--0--------------------0-x-0-x-0---------------|
B-----0-x--0--------------------0-x-0-x-0---------------|
G-----0-x--0-0h2-2-2h4-4-4h7----0-x-0-x-0---------------|
D-----0----0---0-----0-----0----5---5---5---------------|
B-----0----0---0-----0-----0----5---5---5---------------|
G-----0----0--------------------5---5---5---------------|

G-----0-x--0--------------------0-x-0-x-0---------------|
B-----0-x--0--------------------0-x-0-x-0---------------|
G-----0-x--0-0h2-2-2h4-4-4h7----0-x-0-x-0---------------|
D-----0----0---0-----0-----0----5---5---5---------------|
B-----0----0---0-----0-----0----5---5---5---------------|
G-----0----0--------------------5---5---5---------------|


G-----0-x--0--------------------0-x-0-x-0---------------|
B-----0-x--0--------------------0-x-0-x-0---------------|
G-----0-x--0-0h2-2-2h4-4-4h7----0-x-0-x-0---------------|
D-----0----0---0-----0-----0----5---5---5---------------|
B-----0----0---0-----0-----0----5---5---5---------------|
G-----0----0--------------------5---5---5---------------|


G-----0-x--0--------------------0-x-0-x-0---------------|
B-----0-x--0--------------------0-x-0-x-0---------------|
G-----0-x--0-0h2-2-2h4-4-4h7----0-x-0-x-0---------------|
D-----0----0---0-----0-----0----5---5---5---------------|
B-----0----0---0-----0-----0----5---5---5---------------|
G-----0----0--------------------5---5---5---------------|
 
G-----0-----0--x-0--0----0-----0---0-0------------------|
B-----0-----0--x-0--0----0-----0---0-0------------------|
G-----7-----7--x-7--7----0-----0---0-0------------------|
D-----7---7------7--7----5--5--5---5-5------------------|
B-----7---7------7--7----5--5------5-5------------------|
G------------------------5--5------5-5------------------|

G-----0-x--0--------------------0-x-0-x-0---------------|
B-----0-x--0--------------------0-x-0-x-0---------------|
G-----0-x--0-0h2-2-2h4-4-4h7----0-x-0-x-0---------------|
D-----0----0---0-----0-----0----5---5---5---------------|
B-----0----0---0-----0-----0----5---5---5---------------|
G-----0----0--------------------5---5---5---------------|

G-----0-x--0--------------------0-x-0-x-0---------------|
B-----0-x--0--------------------0-x-0-x-0---------------|
G-----0-x--0-0h2-2-2h4-4-4h7----0-x-0-x-0---------------|
D-----0----0---0-----0-----0----5---5---5---------------|
B-----0----0---0-----0-----0----5---5---5---------------|
G-----0----0--------------------5---5---5---------------|

--------
Outro
--------

G-----0-x--0--------------------0-x-0-x-0---------------|
B-----0-x--0--------------------0-x-0-x-0---------------|
G-----0-x--0-0h2-2-2h4-4-4h7----0-x-0-x-0---------------|
D-----0----0---0-----0-----0----5---5---5---------------|
B-----0----0---0-----0-----0----5---5---5---------------|
G-----0----0--------------------5---5---5---------------|

G-----0-x--0--------------------0-x-0-x-0---------------|
B-----0-x--0--------------------0-x-0-x-0---------------|
G-----0-x--0-0h2-2-2h4-4-4h7----0-x-0-x-0---------------|
D-----0----0---0-----0-----0----5---5---5---------------|
B-----0----0---0-----0-----0----5---5---5---------------|
G-----0----0--------------------5---5---5---------------|

G-----0-x--0--------------------0-x-0-x-0---------------|
B-----0-x--0--------------------0-x-0-x-0---------------|
G-----0-x--0-0h2-2-2h4-4-4h7----0-x-0-x-0---------------|
D-----0----0---0-----0-----0----5---5---5---------------|
B-----0----0---0-----0-----0----5---5---5---------------|
G-----0----0--------------------5---5---5---------------|

G-----0-x--0--------------------0-x-0-x-0---------------|
B-----0-x--0--------------------0-x-0-x-0---------------|
G-----0-x--0-0h2-2-2h4-4-4h7----0-x-0-x-0---------------|
D-----0----0---0-----0-----0----5---5---5---------------|
B-----0----0---0-----0-----0----5---5---5---------------|
G-----0----0--------------------5---5---5---------------|

G-----0-x--0--------------------0-x-0-x-0---------------|
B-----0-x--0--------------------0-x-0-x-0---------------|
G-----0-x--0-0h2-2-2h4-4-4h7----0-x-0-x-0---------------|
D-----0----0---0-----0-----0----5---5---5---------------|
B-----0----0---0-----0-----0----5---5---5---------------|
G-----0----0--------------------5---5---5---------------|


G-------------------------------------------------------|
B-----0-0-0--0-0-0--0-0-0--0-0-0------------------------|
G-----7-7-7--0-0-0--7-7-7--0-0-0------------------------|
D-----7-7-7--5-5-5--7-7-7--5-5-5------------------------|
B-----7-7-7--5-5-5--7-7-7--5-5-5------------------------|
G------------5-5-5---------5-5-5------------------------|

Harmonics!!!!
G-----(12)-----(7)-----(5)----(7)----(5)----(7)----(5)--|
B-----(12)-----(7)-----(5)----(7)----(5)----(7)----(5)--|
G-----(12)-----(7)-----(5)----(7)----(5)----(7)----(5)--|
D-----(12)-----(7)-----(5)----(7)----(5)----(7)----(5)--|
B-----(12)-----(7)-----(5)----(7)----(5)----(7)----(5)--|
G-----(12)-----(7)-----(5)----(7)----(5)----(7)----(5)--|

G-------------------------------------------------------|
B-----0-0-0--0-0-0--0-0-0--0-0-0------------------------|
G-----7-7-7--0-0-0--7-7-7--0-0-0------------------------|
D-----7-7-7--5-5-5--7-7-7--5-5-5------------------------|
B-----7-7-7--5-5-5--7-7-7--5-5-5------------------------|
G------------5-5-5---------5-5-5------------------------|


G-----(12)-----|
B-----(12)-----|
G-----(12)-----|
D-----(12)-----|
B-----(12)-----|
G-----(12)-----|


----------
Middle 8     Instrumental
----------

Bmin7   Cmaj7

Bmin7   Cmaj7

Bmin7   Cmaj7

Bmin7   Cmaj7

Harmonics fret 12 7 5 7 5 7 5

Bmin7   Cmaj7

Bmin7   Cmaj7

Bmin7   Cmaj7

Bmin7   Cmaj7

Harmonics fret 12 7 5 7 5 7 5

-----------
Verse 3
-----------

GCmaj7

GCmaj7
around 
GCmaj7
around
GCmaj7
around
GCmaj7
around
GCmaj7
around
GCmaj7
around
GCmaj7

--------------------------
Middle 8 again for OUTRO
-------------------------


Bmin7   Cmaj7

Bmin7   Cmaj7

Bmin7   Cmaj7

Bmin7   Cmaj7

Harmonics fret 12 7 5 7 5 7 5

Bmin7   Cmaj7

Bmin7   Cmaj7

Bmin7   Cmaj7

Bmin7   Cmaj7

Harmonics fret 12 




THE END


CHORDS
   
G     000000
Cmaj7 555000
Cmaj7(2)x1200x
Bmin7(ish)  x77700

Hope this TAB makes sense to everybody, if i tdoesn't thats tough shit!
Now Mr McK If you want to moan about anything in this, and I'm sure 
you'll want to, just SHUT IT!! M x


Comments