Stereophonics - She Takes Her Clothes Off Chords & Tabs

 

She Takes Her Clothes Off Chords & Tabs

Stereophonics Chords & Tabs

Version: 1 Type: Tab 0 ratings
1 star 2 stars 3 stars 4 stars 5 stars
comments

She Takes Her Clothes Off Tab

   
Stereophonics - She Takes Her Clothes Off.
Av a go at this one it sounds right to me.Tell us wot you think mr_wolfy@hotmail.co.uk

Intro

Hint: Slide up to 4 with your finger barring the strings:
also hit the two bar chords on an upstroke.
e----------4----------2----------------
B----------5----------3----------------
G----------4----------2----------------
D----------6----------4-----2--2-------   
A----0/4---4----2-----2-----0--0-------
E----------4----------2----------------

Verses:
Repeat throughout verse:
Shes got another fantasy...

...until you get to the end where it goes:
                      D5
and now she takes her clothes off           

D5= X-X-2-0-X-X

Then continue the intro sequence into the next verse which ends in the same way.
[ Tab from: http://www.guitartabs.cc/tabs/s/stereophonics/she_takes_her_clothes_off_tab.html ]
Chourus:(listen for the strumming pattern for the Em chord)
------0-----------  ----0--0--0--0-0---2--0--2--3--2--0--2--0--
------0-----------  ----2--3--2--2-2---3-----------------------
------0-----------  ----2--2--2--2-2---2-----------------------
------2-----------  ----2--3--2--2-2---------------------------
------2-----------  ----0--0--0--0-2---------------------------
------0-----------  -------------------------------------------

Got the nickname... ...Part of 'Bubble Jo'

Repeat again for the next line:
"They found her dead, dead as nails at home" 
but leave out the little d shape riff on the end:

The chorus carries on like this:

G                   D
Im gonna be another marilyn
G                  D
Bleech my hair and get real thin
G                     D              A
And everybody's gonna wanna dance with me

Then go back to the starting riff for the next verse. 

Av fun with this one its a cracking song.
Let me know wot u think 
wolfy
Comments