Stereophonics - Plastic California Chords & Tabs

 

Plastic California Chords & Tabs

Stereophonics Chords & Tabs

Version: 1 Type: Tab 0 ratings
1 star 2 stars 3 stars 4 stars 5 stars
comments

Plastic California Tab

#----------------------------------PLEASE NOTE---------------------------------#
#This file is the author's own work and represents their interpretation of the #
#song. You may only use this file for private study, scholarship, or research. #
#------------------------------------------------------------------------------#

This is the Guitar part for Stereophonic's 'Plastic California'
Listen to the track to get the rhythmn.

INTRO x2

E-----------0----
B-------------3--
G---0h2----------
D---0------------
A---0------------
E----------------


VERSE
[ Tab from: http://www.guitartabs.cc/tabs/s/stereophonics/plastic_california_tab.html ]
E---------------------0---
B----------------------3--
G---0h2-------------------
D---0---------------------
A---0---------------------
E-------------------------
    
E-------------------------
B-------------------------
G---0h2-------------------
D---0---------------------
A---0---------------------
E-------------------------
    
E---------------------------------------
B---------------------------------------
G---0--2-----2/4---------------4/2------
D---0--0-----0-0---------------0-0------
A---0--0-----0-0---------------0-0------
E---------------------------------------
 
E---------------------0-----------------------------------------------
B----------------------3----------------------------------------------
G--------------------------------0h2------------------------0--2-2/4--
D--------------------------------0--------------------------0--0-0-0--
A--------------------------------0--------------------------0--0-0-0--
E---------------------------------------------------------------------
 
E-------------------------
B-------------------------
G----------------4/2------
D----------------0-0------
A----------------0-0------
E-------------------------
 

CHORUS

("Some love   some hate..." ect)

LINK

E---4--2-----------------
B---3--3-----------------
G---2--2--0h2------------
D---0--0--0--------------
A---------0--------------
E------------------------

Repeat VERSE
CHORUS (Extended, but using same Chords)
LINK (I think this is just Em)
VERSE D Chords, with a second guitar playing this riff
E--------------------------------------
B--------------------------------------
G---2--2--2-2/11--10--11--11-10-11-10--
D--------------------------------------
A--------------------------------------
E--------------------------------------

Then back into the VERSE riff again
End on D
Comments