Stereophonics - Pick A Part Thats New Chords & Tabs

 

Pick A Part Thats New Chords & Tabs

Stereophonics Chords & Tabs

Version: 2 Type: Tab 0 ratings
1 star 2 stars 3 stars 4 stars 5 stars
comments

Pick A Part Thats New Tab

   
PICK A PART THAT'S NEW by Stereophonics
from the album"performance and cocktails"
--------------------------------------------------
Tabbed by AAuuddee@aol.com


INTRO: 
A                                                                        D
-------------------------------------------------------------------------------
-------------------------------------------------------------------------------
-----------------------------------------------------9h11--11--9--11--9--11---
--9h11--11--9--11--9--11--9--11--9--11--9--9--9--0--0---0--0--0--0---0---
--0--0--0--0---0--0--0--0---0--0---0--0--0--0----------------------------
-------------------------------------------------------------------------------

-----------------------------------
------10--10--10--10-------------  (x3)
--11--11---11--11---11-------------
--0---0---0---0----0-------------
-----------------------------------
-----------------------------------
FILL1:
E                                                                                 D
--------------------------------------------------------
--------------------------------------------------------
--------------------------------------------------------
--------------------------------------11--9-------------
--9h11--11--9--11--9--11--9--11--9--0--0--11--9--7---
--0--0--0--0---0--0---0--0--0--0---------0--0--0---


VERSE1:
A                                    A                                 
I've never been here before
                                D
Didn't know where to go
                            D
Never met you befooore
FILL2:             
-----------------
-------------0---
------2----------
---------0-------
--4--------------
-----------------

A                                  A
I've never been to your home
                             D
That smells not unknown
                            
Footsteps made of stone (FILL1)

Walking feels familiar (FILL1)   D

[ Tab from: http://www.guitartabs.cc/tabs/s/stereophonics/pick_a_part_thats_new_tab_ver_2.html ]
CHORUS:
A                                D
You can do all the things that you like to do
A                               D     
All around underground pick a part that's new
A                               D
You can do all the things that you like to do
A                          D                                     E   D  (FILL1)         
All around upside down pick a part that's new

PLAY THIS FILL ALONG THE CHORUS:
A                                   D
-----------------------------------------------------
-----------------------------------------------------
---------------------------9h11--9--11--9--11--11---
--9h11--9--11--9--11--11--0-0--0---0--0--0---0---
--0--0--0--0--0---0--0----------------------------
-----------------------------------------------------


VERSE2: same as Verse1

People drinking on their own
Push buttons on the phone
Was I here once befooore (FILL2)

Is that my voice on the phone
That last drink on my own
Did I ever leave at aaall (FILL1)
Confusions familiar (FILL1)  D

CHORUS

BRIDGE:
----------------7--7--7--7--5--5--7--7--7--7--5--5---
----------------6--6--6--6--6--6--6--6--6--6--6--6---
--6--7--9--7--7--7--7--7--7--7--7--7--7--7--7--7---  (x2)
----------------------------------------------------------
----------------------------------------------------------
----------------------------------------------------------
then play FILL1  and  D

CHORUS (x2): so don't play the FILL1 at the end of the 1st time
Then play FILL1 4times at the end of the 2nd time
On the 3rd time play this:
-----------------------------x--x--x--x--x--x--x-------
-----------------------------x--x--x--x--x--x--x-------
-----------------------------x--x--x--x--x--x--x-------
-----------------------------x--x--x--x--x--x--x-------
--9h11--11--9--11--9--11----x--x--x--x--x--x--x--7---
--0--0--0--0---0--0--0----x--x--x--x--x--x--x---0--

So what's new to you? (x4)  D  A

ENJOY!!



Comments