Stereophonics - Pick A Part Thats New Chords & Tabs

 

Pick A Part Thats New Chords & Tabs

Stereophonics Chords & Tabs

Version: 1 Type: Tab 0 ratings
1 star 2 stars 3 stars 4 stars 5 stars
comments

Pick A Part Thats New Tab

Song: Pick a part that's you
Band: Stereophonics
Album: Performance and Cocktails
Tabber: Barry French (Bazdurst)

Tuning: EADGBE

The intro looks difficult but it really isn't that difficult at all. Listen to the track to get the timing.

Intro

E-----------------------------------------------------------------
B-----------------------------------------------------10-10-10-10-
G-----------------------------------9h11-11h9-11-9-11-11-11-11-11-
D-9h11-11h9-11-9-11-9-11h9-11h9-9-9-0----0----0--0-0--0--0--0--0--
A-0----0----0--0-0--0-0----0--0-0-0-------------------------------
E-----------------------------------------------------------------

E-----------------------------------------------------------------
B-----------------------------------------------------10-10-10-10-
G-----------------------------------9h11-11h9-11-9-11-11-11-11-11-
D-9h11-11h9-11-9-11-9-11h9-11h9-9-9-0----0----0--0-0--0--0--0--0--
A-0----0----0--0-0--0-0----0--0-0-0-------------------------------
E-----------------------------------------------------------------
[ Tab from: http://www.guitartabs.cc/tabs/s/stereophonics/pick_a_part_thats_new_tab.html ]
E-----------------------------------------------------------------
B-----------------------------------------------------10-10-10-10-
G-----------------------------------9h11-11h9-11-9-11-11-11-11-11-
D-9h11-11h9-11-9-11-9-11h9-11h9-9-9-0----0----0--0-0--0--0--0--0--
A-0----0----0--0-0--0-0----0--0-0-0-------------------------------
E-----------------------------------------------------------------

E--------------------------------------
B--------------------------------------
G--------------------------------------
D--------------------------11h9--------
A-9h11-11h9-11-9-11-9-11h9-0----11h9-7-
E-0----0----0--0-0--0-0----------------

e-0---------0- 
b---------0-0- 
g-----2-----2- 
d-------0---2- 
a---4-------0- 
e-------------


Bridge

E--------------------------------------
B--------------------------------------
G--------------------------------------
D--------------------------11h9--------
A-9h11-11h9-11-9-11-9-11h9-0----11h9-7-
E-0----0----0--0-0--0-0----------------

 Walking feels familiar

E--------------------------------------
B--------------------------------------
G--------------------------------------
D--------------------------11h9--------
A-9h11-11h9-11-9-11-9-11h9-0----11h9-7-
E-0----0----0--0-0--0-0----------------

Chorus: "You can do all the things that you like to do..." ect)

Solo 

E--------------------7--7--7--7----5--5---7--7--7--7----5--5--- 
B--------------------6--6--6--6----6--6---6--6--6--6----6--6--- 
G-----6---7--9--7----7--7--7--7----7--7---7--7--7--7----7--7--- 
D-------------------------------------------------------------- 
A-------------------------------------------------------------- 
E-------------------------------------------------------------- 

Finish with D then A
Comments