Stereophonics - Pick A Part Thats New Chords & Tabs

 

Pick A Part Thats New Chords & Tabs

Stereophonics Chords & Tabs

Version: 1 Type: Chords 0 ratings
1 star 2 stars 3 stars 4 stars 5 stars
comments

Pick A Part Thats New Chords

   
#----------------------------------PLEASE NOTE---------------------------------#
#This file is the author's own work and represents their interpretation of the #
#song. You may only use this file for private study, scholarship, or research. #
#------------------------------------------------------------------------------##

Stereophonics 

> Pick A Part Thats New 


The intro may look difficult but if you just hold your first finger on fret nine 
of the d string and then strum 
the a and d strings hammering on to the eleventh fret it sounds right. The best 
way is to listen to the track. 
Intro  ( = means hammer on) 
E----------------------------------------------------------------------------------------
B-----------------------------------------------------------------------10---10---10---10-
G------------------------------------------------9=11--11=9-11-9--11----11---11---11---11-
D---9=11--11=9-11-9--11---9--11=9-11=9--9---9----0------0----0-0---0-----0----0----0----0-
A---0-----0----0--0---0---0--0----0-----0---0--------------------------------------------- 
[ Tab from: http://www.guitartabs.cc/tabs/s/stereophonics/pick_a_part_thats_new_crd.html ]
E-----------------------------------------------------------------------------------------
 
E-------------------------------------------------------------
B--------------------------------------------------------------
G--------------------------------------------------------------
D---------------------------------------------11=9-------------
A----9=11---11=9---11----9---11-----9---11=9--------11=9-----7--
E----0------0-------0----0----0-----0---0-----------------------
Verse 
A5-----------------------A5-
Ive never been here before
--------------------A5- 
didn't know where to go
Dsus2-------------Dsus2
never met you before 
e-0-----------------0----
b--------------0----0----
g--------2----------2----
d-----------0-------2----
a----4--------------0----
e------------------------
I've never been to your home
that smells not unknown 
footsteps made of stone
(repeat the end of intro twice) 
walking feels familiar. 
 
Chorus ( play these chords or repeat intro ) 
A                           D 
You can do all the things that you like to do 
A                           D 
All around underground pick a part thats new 
 
Solo 
E--------------------7--7--7--7----5--5---7--7--7--7----5--5---
B--------------------6--6--6--6----6--6---6--6--6--6----6--6---
G-----6---7--9--7----7--7--7--7----7--7---7--7--7--7----7--7----
D--------------------------------------------------------------
A--------------------------------------------------------------
E--------------------------------------------------------------
Finish with D then A 
Comments