Stereophonics - Nothing Precious At All Chords & Tabs

 

Nothing Precious At All Chords & Tabs

Stereophonics Chords & Tabs

Version: 2 Type: Tab 0 ratings
1 star 2 stars 3 stars 4 stars 5 stars
comments

Nothing Precious At All Tab

   
#----------------------------------PLEASE NOTE---------------------------------#
#This file is the author's own work and represents their interpretation of the #
#song. You may only use this file for private study, scholarship, or research. #
#------------------------------------------------------------------------------#

Song: Nothing Precious At All
Artist: Stereophonics
Album: You gotta go there to come back
Tabbed by: Keith Clark
Email: mrnicesg@blueyonder.co.uk


Capo on 2nd fret

C     = x32010
G5    = 3200xx
F     = 133211
Asus2 = x02200
G     = 32003x
[ Tab from: http://www.guitartabs.cc/tabs/s/stereophonics/nothing_precious_at_all_tab_ver_2.html ]
Intro
Riff 1
e------3-------3-------3--5--3-----------------8--------8--------8--10--8
B--3h5-----3h5-----3h5--------------------8h10-----8h10-----8h10---------
G-----------------------------------------------------------------------
D-----------------------------------------------------------------------
A-----------------------------------------------------------------------
E-----------------------------------------------------------------------



Solo
    Asus2           G            F               
e-----------------------------------------------------------
B---6--6br8--5----5--5br6--3---3--3br-3-----1--1/3/5/8------
G-----------------------------------------------------------
D-----------------------------------------------------------
A-----------------------------------------------------------
E-----------------------------------------------------------

Outro:
e--------5--3-----------------5--3--5--------
B---3/5---------5-------3/5------------5\1---
G--------------------------------------------
D--------------------------------------------
A--------------------------------------------
E--------------------------------------------


hope you enjoy
Any comments welcome
thank you
Comments