Stereophonics - Nothing Precious At All Chords & Tabs

 

Nothing Precious At All Chords & Tabs

Stereophonics Chords & Tabs

Version: 1 Type: Tab 0 ratings
1 star 2 stars 3 stars 4 stars 5 stars
comments

Nothing Precious At All Tab

   
#----------------------------------PLEASE NOTE---------------------------------#
#This file is the author's own work and represents their interpretation of the #
#song. You may only use this file for private study, scholarship, or research. #
#------------------------------------------------------------------------------#
----------------------------------------------------->
Artist    -> Stereophonics
Album     -> You Gotta Go There To Come Back
Title     -> Nothing Precious At All
Tabbed By -> mark heron/the shark
E-Mail    -> thesharkfactor10@aol.com



Intro Riff (Electric Piano arr. for guitar)

e|--------5-------5----------7--5----------------10-----------
B|---5h7-----5h7-----5h7p5---------7-----10h12--------10h12---
G|------------------------------------------------------------
D|------------------------------------------------------------
A|------------------------------------------------------------
E|------------------------------------------------------------


e|---10---------------12--10---------------5-------5----------
B|--------10h12p10-------------12-----5h7-----5h7-----5h7p5---
G|------------------------------------------------------------
D|------------------------------------------------------------
A|------------------------------------------------------------
E|------------------------------------------------------------

[ Tab from: http://www.guitartabs.cc/tabs/s/stereophonics/nothing_precious_at_all_tab.html ]
e|---7--5----------------10-----------10---------------12--10-
B|---------7-----10h12--------10h12--------10h12p10-----------
G|------------------------------------------------------------
D|------------------------------------------------------------
A|------------------------------------------------------------
E|------------------------------------------------------------

              
e|--------2---------------------------------------------------
B|---12---3---------------------------------------------------
G|--------2---------------------------------------------------
D|--------0---------------------------------------------------
A|------------------------------------------------------------
E|------------------------------------------------------------





(Slide guitar solo - 2.57)   
                                                         G       A          D 
                                                  (Theres nothing pecious at all...)
e|-------------------------------------------------------------------
B|-------------------------------------------------------------------
G|---9/14\11~~~~~---11/12\11\9~~~~~---9/11\9\7~~~~~---7/9/11/14~~~---
D|-------------------------------------------------------------------
A|-------------------------------------------------------------------
E|-------------------------------------------------------------------


VERSES:  G  A  D       G     G  A  D      G       G  A  D       G   A   D


(Slide guitar outro riff - 3:44) repeat 4 times.


e|----------------------------------------------------------
B|----------------------------------------------------------
G|---9/14---16-----14---9/14--16-------14--14\7~~~~~~-------
D|-------------14-----------------14------------------------
A|----------------------------------------------------------
E|----------------------------------------------------------

Comments