Stereophonics - Nice To Be Out Chords & Tabs

 

Nice To Be Out Chords & Tabs

Stereophonics Chords & Tabs

Version: 3 Type: Tab 0 ratings
1 star 2 stars 3 stars 4 stars 5 stars
comments

Nice To Be Out Tab

ARTIST: STEREOPHONICS
TRACK: NICE TO BE OUT


TABBED BY JORDAN CRAIG  aged 13   

HI FOLKS, THIS SONGS PRETTY EASY………..IT AIN’T  PERFECT BUT ANY 

COMPLAINTS TO:    JORDAN_CRAIG@YAHOO.COM


INTRO:


e  ---0----- 0-----0----- ------ - 0-----0-------------------------          x4
B  ---1-----1-----1----- 1--0     0-----0-------------------------
G ----0---- 0-----0 ------------- 0-----0----0h2p0--------------
D ----2-----2 ----2 --------------2-----2-------------------------
A ----3 ----- ---------------------3-----3-------------------------
E  -------------------------------------------------------------------

VERSE 1: 
[ Tab from: http://www.guitartabs.cc/tabs/s/stereophonics/nice_to_be_out_tab_ver_3.html ]
FIRST PART
e ------0—0---0----0----0----0----0----0-----0-----0----0
B------1---1---1----1----1----1----1----1-----1-----1----1
G------0---0----0---0----0----0----0----0-----0-----0----0
D------2---2----2---2----2----2----2----2-----2-----2----2
A---------------------------------------------------------------
E----------------------------------------------------------------

SECOND PART

e-----0-----0-----0-----0-----0-----0-----0-----0-----0-----0
B----1-----1-----1-----1-----1-----1-----1-----1-----1-----1
G----0-----0-----0-----0-----0-----0-----0-----0-----0-----0
D----2-----2-----2-----2-----2-----2-----2-----2-----2-----2
A----3-----3-----3-----3-----3-----3-----3-----3-----3-----3
E---------------------------------------------------------------- 


SONG ORDER

INTRO -  VERSE - INTRO - VERSE
Comments