Stereophonics - Mr Writer Chords & Tabs

 

Mr Writer Chords & Tabs

Stereophonics Chords & Tabs

Version: 5 Type: Tab 0 ratings
1 star 2 stars 3 stars 4 stars 5 stars
comments

Mr Writer Tab

   
-----------------------------------------------------------------------------
STEREOPHONICS – MR. WRITER
-----------------------------------------------------------------------------

Tabbed By Michiel
Michiel2001@hotmail.com

Chords
022000 - Em
020200 - E7sus4
X32000 - Cmaj7
X02200 - Asus2
32003X - G

Tuning for chords (capo 1): F, Bb, Eb, G#, Cb, F, 
                            chords related to capo (Em = Fm)
Tuning for fills:           E, A, D, G, B, E

Drum Fade in....
		
|              Em- - - - - - - - - - - - -|             |=> capo fret 1 !!!
|                                                       |
|-------------|-------------|-------------|-------------|  
|-------------|-------------|-------------|-1-----------|
|-------------|-------------|-------------|---3-1-------|=> no capo!!!
|-------------|-1-----------|-------------|-------3-1---|  (easier to play)
|-------------|-------------|-------------|-------------|
|-------------|-------------|-------------|-------------|


RIFF 1/ Verse(6x)

|Em- - - - - -|E7sus4- - - -|Cmaj7- - - - - - - - - - - | 
|                                                       | 
|-------------|-------------|-------------|-------------|
|---1---------|-------------|---1---------|---1---------|
|---1---------|-------------|---1-----1---|-----3-1-----|
|-3---3-1-1-3-|---1---------|-3---3-1---3-|---------3-1-|
|-------------|-------------|-------------|-------------|
|-------------|-------------|-------------|-------------|
		      3x valt zang in

RIFF 2/Bridge (1x)
[ Tab from: http://www.guitartabs.cc/tabs/s/stereophonics/mr_writer_tab_ver_5.html ]
|Asus2- - - - - - - - - - - |Cmaj7 - - - - - - - - - |Asus2 - - -  - - - - -|
|                                                                           |
|-------------|-------------|------------|-------------|-----------|--------|
|-------------|---1---------|------------|---1---------|-----------|--------|
|---1-----1---|-----3-1-----|---1-3---1--|-----3-1-----|---1-3---1-|--1---1-|
|-3---3-1---3-|---------3-1-|-3-----3---3|---------3-1-|-3-----3--3|3--3-1-3|
|-------------|-------------|------------|-------------|-----------|--------|
|-------------|-------------|------------|-------------|-----------|--------|

RIFF 3/Chorus/Mr. Writer!! part (without fills, because they’re difficult to tab!)

|Em- - - - - - - - - - - - - - - - - - - - - - - - - - - |

|G - - - - - - - - - - - - - - - - - - - - - - - - - - - |

|Asus2 - - - - - - - - - - - - - - - - - - - - - - - - - |

|Cmaj7 - - - - - - - - - - - - - - - - - - - - - - - - - |
                                       |                 |
                          |------------|-----------------|
                          |------------|-----------1-----|
                          |------------|-----1---3---3-1-|
                          |------------|-1-3-------------|
                          |------------|-----------------|
                          |------------|-----------------|
RIFF 1 Variation 1 (1x)

|Em- - - - - -|E7sus4- - - -|Cmaj7- - - - - - - - - - - | 
|                                                       |
|-------------|-------------|-------------|-------------|
|-------------|-----1-------|----1--------|---1---------|
|-------------|-------------|-------------|-----3-1-----|
|-3-----------|-1-3---1--3--|-------------|---------3-1-|
|-------------|-------------|-------------|-------------|
|-------------|-------------|-------------|-------------|


RIFF 1 Variation 2 (1x)

|Em- - - - - -|E7sus4- - - -|Cmaj7- - - - - - - - - - - | 
|                                                       |
|-------------|-------------|-------------|-------------|
|---1---------|-----1-------|----1--------|---1---------|
|-------------|-------------|-------------|-----3-1-----|
|-3---3-1-1-3-|-1-3---1--3--|-------------|---------3-1-|
|-------------|-------------|-------------|-------------|
|-------------|-------------|-------------|-------------|



RIFF 1 (4x)

RIFF 2 (1x)

RIFF 3 (1x)	 

RIFF 1 (2x) (with pianosolo)

RIFF 2 (1x)

RIFF 3 (3x)

RIFF 4
|Em- - - - - - - - - - - - - - - - - - - - - - - - - - -|(8 measures )

|Em- - - - - - - - - - - - - - - - - - -| (5 measures E, B, e, B, e etc. with Drum fade out)
Comments