Stereophonics - Mr Writer Chords & Tabs

 

Mr Writer Chords & Tabs

Stereophonics Chords & Tabs

Version: 3 Type: Tab 0 ratings
1 star 2 stars 3 stars 4 stars 5 stars
comments

Mr Writer Tab

   
Mr Writer
Stereophonics

tabbed by H@NZ
send comments to hansbroerse@soneramail.nl


CAPO ON FRET 1

Intro 

  Riff 1                           Riff 2
 |--------------------------------|-------------------------------|
 |--------------------------------|-------------------------------|
 |4-2---------------4--2----0-----|-4-2---------------2-4---0-----|
 |----2-0-2-0-2-----------2---2---|-----2-0-2-0-2---------2---2---|
 |--------------------------------|-------------------------------|
 |--------------------------------|-------------------------------|

 Chords:  Em9 / B1 / Em(1) / D6Sus2 / CM7 


Verse 1

 Chords:  Em(1) / D6Sus2 / CM7


Bridge 1

 Chords:  D6Sus2 / CM7  



Chorus 1

  Riff 3           Riff 4
 |-------7--------|-------7-----7-----|
 |---7-8-----7----|---7-8-----7-------|
 |-9-------9------|-9-------9-----9---|
 |----------------|-------------------|
 |----------------|-------------------|
 |----------------|-------------------|

 Chords:  Em(1) /  G6 /  A7


Instrumental Break 1

 Chords:  Em(1) / D6Sus2 / CM7


Verse 2

 Chords:  Em(1) / D6Sus2 / CM7


Bridge 2

  Riff 5 
 |---------------------------|
 |---------------------------|
 |-4-b4-4-2-4-b4-4-2---------|
 |-------------------4-b4-4--|
 |---------------------------|
 |---------------------------|

 Chords:  D6Sus2 / CM7

 

Chorus 2

  Riff 3           Riff 4
 |-------7--------|-------7-----7-----|
 |---7-8-----7----|---7-8-----7-------|
 |-9-------9------|-9-------9-----9---|
 |----------------|-------------------|
 |----------------|-------------------|
 |----------------|-------------------|
[ Tab from: http://www.guitartabs.cc/tabs/s/stereophonics/mr_writer_tab_ver_3.html ]
 Chords:  Em(1) / G6 / A7 / Cadd9



Intstumental Break 2

 Chords:  Em(1) /  D6Sus2 / CM7




Bridge 3

  Riff 5
 |---------------------------|
 |---------------------------|
 |-4-b4-4-2-4-b4-4-2---------|
 |-------------------4-b4-4--|
 |---------------------------|
 |---------------------------|

 Chords:  D6Sus2 / CM7


Chorus 3

  Riff 3           Riff 6 
 |-------7--------|-------7-----7---------|
 |---7-8-----7----|---7-8-----7---10-8-7--|
 |-9-------9------|-9-------9-------------|
 |----------------|-----------------------|
 |----------------|-----------------------|
 |----------------|-----------------------|

 
 Chords:  Em(1) / G6 / A7 / Cadd9



Outro
 
 Riff 7                     Riff 8
|---2---2-3---2----------||----0---0---0---0---0---0----------0------|
|---0---0-0---0---3---0--||----0-----0---0---0---0---0--0--0---------|
|---0---0-0---0---0---0--||--0---------------------------------------|
|2--2--------------------||--2-----------------------------------2---|
|2-----------------------||2-----------------------------------------|
|0-----------------------||0-----------------------------------------|







 Chords: Em9 / Em(2)

Chords used

Em9   B1  Em(1) D6Sus2 CM7  G6  A7 Cadd9 Em(2)                                
|-2----x----0-----0------0---0---0---0-----0--|
|-0----x----0-----0------0---0---2---3-----0--|
|-0----x----0-----2------0---0---0---0-----0--|
|-2----x----2-----0------2---0---2---2-----2--|
|-x----2----2-----x------3---2---0---3-----x--|
|-x----x----0-----x------x---3---x---x-----x--|








Comments