Stereophonics - Mr Writer Chords & Tabs

 

Mr Writer Chords & Tabs

Stereophonics Chords & Tabs

Version: 2 Type: Tab 0 ratings
1 star 2 stars 3 stars 4 stars 5 stars
comments

Mr Writer Tab

   
#----------------------------------PLEASE NOTE---------------------------------#
#This file is the author's own work and represents their interpretation of the #
#song. You may only use this file for private study, scholarship, or research. #
#------------------------------------------------------------------------------#

Artist - Stereophonics
Song - Mr. Writer
Tabbed by Darren King

This is 100% correct cos i got it from a free thing from the JEEP album.

Capo fret 1
 
Chords:
Em+9 - e-3
       B--
       G--
       D-3
       Axx
       Exx

B1 - exx
     Bxx
     Gxx
     Dxx
     A-3
     Exx

Em [1] - e--
         B--
         G--
         D-2
         A-2
         E--

D6sus2 - e--
         B--
         G-3
         D--
         Axx
         Exx

Cmaj7 - e--
        B--
        G--
        D-2
        A-3
        Exx

Intro (drum beats 4 a while)

Em+9 - Em+9 - B1 - B1 

Intro Solo


1 e------------------------  2 e-----------------------
  B------------------------    B-----------------------
  G-5-3-------------5-3--3-    G-5-3-------------3-5-0-
  D----3-0-3-0-3--0-----0--    D----3-0-3-0-3--0----3-3
  A------------------------    A-----------------------  
  E------------------------    E-----------------------

during the intro solo, these chords are being played under it:

Em [1] - D6sus2 - Cmaj7

Chorus1

(these riffs are played under the vocals and 1st guitar)

3               4
e-------8----   e------8---8--
B----8-9----8   B---8-9---8--- 
G-10------10-   G-10----10--10

Also these chords are in the chorus

Em [1]

G6 - e--
     B--
     G--
     D--
     A-2
     e-3

A7 - e--
     B-3
     G--
     D-3
     A--
     Exx

Cadd9 - e--
        B-3
        G--
        D-2
        A-3
        Exx

Chorus1

Instrument Break1

Em [1] - D6sus2 - Cmaj7
Em [1] - D6sus2 - Cmaj7

===================================================================================================================

Tabbed by Scott Morgan

Capo fret 1

Chords
Em - 02200X
E7sus4 - 02020X(not sure if that's the right name)
X3200X - Cmaj7
X0220X - Asus2
32003X - G

Intro
Keyboard arranged for Guitar

--------------------------------------------------------|
--------2-----------------------------------------------|
-----4-----4------------------------------2--4----------|
---------------------------------------------------5----|
--------------5---5--7----5---7-----------------7-----7-|
-----------------------------------0--------------------|

Repeat that as neccessary


===============================================================================================================================

[Transcribed by CTp]

Capo 1st fret
Standard Tuning

Chords with respect to capo:
(Chords shown in brackets reflect actual chord sounding)
Em022000(Fm)
Dsus2xx0230(Ebsus2)
Cmaj7x32000(C#maj7)
Asus2x02200(Bbsus2)
G320003(G#)
Asus2/E0x2200(Bbsus2/F)
C/G3320(C#/G#)
[ Tab from: http://www.guitartabs.cc/tabs/s/stereophonics/mr_writer_tab_ver_2.html ]
==============================================================================================
Mr Writer - Stereophonics

CAPO FRET 1

Chords Used (shown with no capo)
Em(1)022000
D6sus2xx0200
Cmaj7x32000
G6320000
A7x02020
Cadd9x32030
Em+9xx2002
Em(2)xx2000

Intro Riff (tabbed without capo, played with capo)
e-----------------------------------------------------------------------------
B-----------------------------------------------------------------------------
G---5--3-----------------5--3-----0------5--3-----------------3--5-----0------
D---------3--0--3--0--3--------3-----3---------3--0--3--0--3--------3-----3---
A-----------------------------------------------------------------------------
E-----------------------------------------------------------------------------

(Chords repeat for all verses, and chorus')
Outro
Em+9 
Em(2) 

I have the riffs that are played under the verse and chorus but couldn't be bothered tabbing them
Please e-mail if you would like them!
Tabbed by philip.huckle@bt.com
Please e-mail with any suggestions/comments 

===================================================================================================================================
Stereophonics-Mr Writer
Tabbed by Adam Venton  (venton@eurobell.co.uk)

Capo on 1st fret

CHORDS
Emin add9-xx2002
B1-020000
Em-022000
D6sus2-xx0200
Cmaj7-x32000
G6-320000
A5-x02200
C add 9-x32033

NTRO
Emin add 9              B1
Riff 1
b------------------------------------------------------------------------------
g-------5------3-----------------------------------------5p3-----------0-------
d--------------------3---0----3----0---3------------------------3------------3-

Riff 2
G-----------------------------------------------------------------
D----0----2---2---0-2-0-2---0---2---2---2-0-2-0--2
A------------------------------------------------------------------
Repeat over chorus

Break
Em         D6sus2          Cmaj7        x2

Verse 2  ( Same chords used )

ridge 2
D6sus2                                                 Cmaj7                             D6sus2
And then you go home     with you on your own      what do you really know
Riff 3 ( played over bridge )
g-----5b6r5-------3--------5b6r5--------3------------------
d--------------------------------------------------5b6r5---

Repeat chorus
Repeat break
Repeat bridge


Outro
Eadd9
Riff 4
E-------------3-----------3h4--------3---------------0
B-------------0-------0---------0----0----------3----0
G-------------0-------0---------0----0-----0----------
D----3--------3---------------------------------------
A----3------------------------------------------------
E----0------------------------------------------------

Riff 5
E--------------------------0-----0-------0------0-------0-------0-------0----0--
B--------------------------0--------0-------0-------0------0-------0-------0----
G-------------------0-----------------------------------------------------------
D-------------------3----------------------------------------------------------3
A------------3------------------------------------------------------------------
E-----0------0------------------------------------------------------------------
Comments