Stereophonics - Mr Writer Chords & Tabs

 

Mr Writer Chords & Tabs

Stereophonics Chords & Tabs

Version: 1 Type: Bass Tab 0 ratings
1 star 2 stars 3 stars 4 stars 5 stars
comments

Mr Writer Bass Tab

          Band: Stereophonics
          Song: Mr Writer
          Tabbed By: Chris Davidson (mols10@hotmail.com)
          
          Start with 3 C's on the A string
          
          Riff #1
          
          G---------------------------------|
          D---------------------------------|
          A------------6-6----4----4-4-4--4-|
          E-1----1--------------------------|
          
          Riff #2
          
          G------------------------------|
          D------------------------------|
          A--6--6-----4--4----6--6--6-6-6|
          E------------------------------|
          
          Chorus
          
          G------------------------|-------------------------|
          D------------------------|-------------------------|
          A------------------------|-------------------------|
          E-1---1-1-1----1---1-1-1-|--4---4-4-4----4---4-4-4-|
          
          G------------------------|-------------------------|
          D------------------------|-------------------------|
          A-1---1-1-1----1---1-1-1-|--4---4-4-4----4---4-4-4-|
          E------------------------|-------------------------|
          
          ORDER:
          Riff #1 (x6)
          Riff #2
          Chorus
          Riff #1 (x4)
          Riff #2
          Chorus
          Riff #1 (x2)
          Riff #2
          Chorus  (x2)
[ Tab from: http://www.guitartabs.cc/tabs/s/stereophonics/mr_writer_btab.html ]
Comments