Stereophonics - Moviestar Chords & Tabs

 

Moviestar Chords & Tabs

Stereophonics Chords & Tabs

Version: 1 Type: Tab 0 ratings
1 star 2 stars 3 stars 4 stars 5 stars
comments

Moviestar Tab

Stereophonics
Moviestar 

Tabbed by
Gary McStea


Intro

(The intro and first verse are just a bass line but on guitar just play this)

E---------------------------------------------------------------------------
B---------------------------------------------------------------------------
G---------------------------------------------------------------------------
D---------------------------------------------------------------------------
A---------------------------------------------------------------------------
E--10-10-10-10-10-10-10-10-10-s-3--3--3-s-8--8--8--8------------------------

Chrous
[ Tab from: http://www.guitartabs.cc/tabs/s/stereophonics/moviestar_tab.html ]
E---------------------------------------------------------------------------
B---------------------------------------------------------------------------
G---------------------------------------------------------------------------
D--12-12-12-12-12-12-12-12-12-s-5--5--5-s-10-10-10-10-----------------------
A--12-12-12-12-12-12-12-12-12-s-5--5--5-s-10-10-10-10-----------------------
E--10-10-10-10-10-10-10-10-10-s-3--3--3-s-8--8--8--8------------------------

(I play the chorus rhythum as above with some sliding but u can play it like this)

E----------------
B---------------- (Use the same rythum as above)
G--7-----5-------
D--7--5--5-------
A--5--5--3------- 
E-----3----------

Fills

E----------------
B--8-7----------- (These are just the notes in the record they play around 
G------7-5-5-7---  with the timing a little, so have some fun yourself)
D----------------
A----------------
E----------------

E----------------
B---------------- (Later in the record a second fill comes in)
G-5b-------------  
D----------------
A----------------
E----------------

Bridge Thingy (1:58)

E--------------------------- (repeat the last chord as much as needed)
B---------------------------
G--10-10-10-9-9-7-7-5-5-----
D--10-10-10-9-9-7-7-5-5--7--
A--8--8--8--7-7-5-5-3-3--7--
E------------------------5-- 

Ok thats it basically. You can figure out the order of all these parts yourself. 
Its not a hard song. Enjoy
Comments