Stereophonics - Movie Star Chords & Tabs

 

Movie Star Chords & Tabs

Stereophonics Chords & Tabs

Version: 1 Type: Tab 0 ratings
1 star 2 stars 3 stars 4 stars 5 stars
comments

Movie Star Tab

Movie Star – Stereophonics

Pretty sure this is right… well it sounds good to me! 

All through out this song there is a unique sound! - I think is a wah sound or some kind of guitar effect.


Verse:

Kelly doesn’t play anything here but Scott plays a simple riff half way through the fist verse till the chorus. 

e-3-2---------3-2-------  (repeat as needed)
B-----3-1-3-------3-1-3-
G-----------------------
D-----------------------
A-----------------------
E-----------------------


Chorus:

Both guitars play this:
[ Tab from: http://www.guitartabs.cc/tabs/s/stereophonics/movie_star_tab.html ]
e-------------------------------------------
B-------------------------------------------
G-5—-5s7-7------7-----------5----5—-5s7-----
D-5—-5s7-7---7--7---5-5-----5----5—-5s7-----
A-3—-3s5-5---7--5---5-5-----3----3—-3s5-----
E-------------------3-3---------------------

Movie Star – ah ar    Dunno where you are


Bridge:

e-------------------------------------------
B-------------------------------------------
G-7---5---5-----4--4----3----2--------------
D-7---5---5-----4--4----3----2--------------
A-5---3---3-----2--2----1----0--------------
E-------------------------------------------

You Don’t know what its like here


And that’s about it. Any comments email me sam_slatcher@hotmail.com Enjoy!!
Comments